Television - Glory Chords & Tabs

 

Glory Chords & Tabs

Television Chords & Tabs

Version: 1 Type: Tab 0 ratings
1 star 2 stars 3 stars 4 stars 5 stars
comments

Glory Tab

   
#----------------------------------PLEASE NOTE---------------------------------#
#This file is the author's own work and represents their interpretation of the #
#song. You may only use this file for private study, scholarship, or research. #
#------------------------------------------------------------------------------##
>From: yorkie@praxis.co.uk (John Howell)
>Subject: TAB: Glory by Television

One of my favourite songs, lovingly tabbed out to the best of my ability.
This is for Fred Hamilton, and the guy up in Glasgow who asked about
Television songs and who I don't think I managed to mail through to. Can
I put in a request for anyone to mail me any Television or Tom Verlaine
songs they have? I'm interested in sorting out some sort of archive of
his stuff. Anyway...

Glory by Television, from the album Adventure, the first song from
Television's second album.

The main riff is in D. It simply moves up to E, and down to A 
for the chorus:

(Main riff in D):
e-|-----------------------|
B-|-----------------------|
G-|-----2-----0-2-4-2---0-|
D-|-0-0-----0---------0---|
A-|-----------------------|
E-|-----------------------|

(Bass):
G-|-----2h4-----2h4-0-|
D-|-0-0-----0-0-------|
A-|-------------------|
E-|-------------------|


(repeat loads of times to fade, with ad lib solo)

[ Tab from: http://www.guitartabs.cc/tabs/t/television/glory_tab.html ]
(Solo 1):
e-|-------------------------------|-h3h4h5-2-----------|
B-|-3-1--1h2h3-1- 1h2h3-1---1-3-1-|----------3-3-1---1-|
G-|-----------------------2-------|----------------2---|
D-|-------------------------------|--------------------|
A-|-------------------------------|--------------------|
E-|-------------------------------|--------------------|


(Solo 2):
e-|-10-------------------------|
B-|-------------10-12-10----10-|
G-|----------11----------11----|
D-|----12-12-------------------|
A-|----------------------------|
E-|----------------------------|

e-|-10----------10-14-14-14--14-14-14/17-|
B-|----12-10-12--------------------------|
G-|--------------------------------------|
D-|--------------------------------------|
A-|--------------------------------------|
E-|--------------------------------------|

e-|-------17----------17-14----------|-------------------|
B-|-15-15----15-15-15-------17-15----|-17b(19)~~~~b(17)\-|
G-|-------------------------------16-|-------------------|
D-|----------------------------------|-------------------|
A-|----------------------------------|-------------------|
E-|----------------------------------|-------------------|

e-|---------------------7-|---7-4---------------------|
B-|-------------------5---|-5-----5-------------------|
G-|---------------4-6-----|---------6-7---0-2-1-2-1-2-|
D-|-----------4/6---------|-------------0-------------|
A-|-------2-4-------------|---------------------------|
E-|-0-2-4-----------------|---------------------------|


Please send me any corrections etc etc
Later, John Howell  aka  yorkie@praxis.co.uk
Comments