Teisco Del Rey - Seville Chords & Tabs

 

Seville Chords & Tabs

Teisco Del Rey Chords & Tabs

Version: 1 Type: Tab 0 ratings
1 star 2 stars 3 stars 4 stars 5 stars
comments

Seville Tab

Seville - Teisco Del Rey
Tabbed by springwaffle

e-12------12--11--10--9--8--7--6--5--4--3--2--1--0-
b--------------------------------------------------
g--------------------------------------------------
d--------------------------------------------------
a--------------------------------------------------
e--------------------------------------------------
  ^^^^^^^^^^^^^^^^^^^^^^^^^^^^^^^^^^^^^^^^^^^^^
e|--0-0-0-1-0---0-0-0-1-0---0-0-0-1-0--0---------------------------------0----
b|*--------------------------------------3-1--1-0------1-1-0----1-0----1----0-
g|-------------------------------------------------2----------2------2--------
d|----------------------------------------------------------------------------
a|*---------------------------------------------------------------------------
e|----------------------------------------------------------------------------

e-------0--------------------------------------------------------|
b-0-1-3---3-1-0---0-----------0---------0-------0-------0-------*|
g---------------2---2-0---------2-0-------2-0-----2-0-----2-0----|
d-----------------------2--2--------2---------2-------2-------2--|
a---------------------------------------------------------------*|
e----------------------------------------------------------------|

e-----------------------------------------------------------------------
b-----------------------------------------------------------------------
g---------------------------------------------0-------------------------
d-------------------------------2---2-2-3---3---3-2---2-0---------------
a---------0-2---2-0-2-3---3-2-0---------------------------3-2---2-0---0-
e-0---0-4-----------------------------------------------------------4---

e-0-0-0-1-0---0-0-0-1-0---0-0-0-1-0--0---------------------------------0----
b--------------------------------------3-1--1-0------1-1-0----1-0----1----0-
g------------------------------------------------2----------2------2--------
d---------------------------------------------------------------------------
a---------------------------------------------------------------------------
e---------------------------------------------------------------------------

e-------0-------------------------------------------------------
b-0-1-3---3-1-0---0-----------0---------0-------0-------0-------
g---------------2---2-0---------2-0-------2-0-----2-0-----2-0---
d-----------------------2--2--------2---------2-------2-------2-
a---------------------------------------------------------------
e---------------------------------------------------------------

e-12-12-12-13-12---12-12-12-13-12---12-12-12-13-12--12------------------
b------------------------------------------------------15-13--13-12-----
g--------------------------------------------------------------------14-
d-----------------------------------------------------------------------
a-----------------------------------------------------------------------
e-----------------------------------------------------------------------
[ Tab from: http://www.guitartabs.cc/tabs/t/teisco_del_rey/seville_tab.html ]
e---------------------------12-12--------------12\0-------------------------------------
b-13-13-12-----13-12-----13-------12--12-13-15--------0---------0-------0-------0-------
g-----------14--------14--------------------------------2-0-------2-0-----2-0-----2-0---
d-----------------------------------------------------------2---------2-------2-------2-
a---------------------------------------------------------------------------------------
e---------------------------------------------------------------------------------------
                                               ^^^^                                   ^
e---------------------------------------------------------------------------------------
b---------------------------------------------------------------------------------------
g-------------------------------------------------------------0-------------------------
d--------------------------------------------2------2-2-3---3---3-2---2-0---------------
a---------------0--2------2-0-2-3------3-2-0------------------------------3-2---2-0---0-
e-/0------0--4----------------------------------------------------------------------4---

e-3-3-3-4-3---3-3-3-4-3---3-3-3-4-3--3---------------------------------3----
b--------------------------------------6-4--4-3------4-4-3----4-3----4----3-
g------------------------------------------------5----------5------5--------
d---------------------------------------------------------------------------
a---------------------------------------------------------------------------
e---------------------------------------------------------------------------

e-------3-----------------------------------------------------
b-3-4-6---6-4-3---3---------3---------3-------3-------3-------
g---------------5---5-3-------5-3-------5-3-----5-3-----5-3---
d-----------------------5---------5---------5-------5-------5-
a-------------------------------------------------------------
e-------------------------------------------------------------

e-3-3-3-4-3---3-3-3-4-3---3-3-3-4-3--3---------------------------------3----
b--------------------------------------6-4--4-3------4-4-3----4-3----4----3-
g------------------------------------------------5----------5------5--------
d---------------------------------------------------------------------------
a---------------------------------------------------------------------------
e---------------------------------------------------------------------------

e-------3---------------------------------------------------------------
b-3-4-6---6-4-3---3---------3---------3---------3-------3-------3-------
g---------------5---5-3-------5-3-------5-3-------5-3-----5-3-----5-3---
d-----------------------5---------5---------5---------5-------5-------5-
a-----------------------------------------------------------------------
e-----------------------------------------------------------------------

e------------------------------------------------------
b-3------------3------------3-------3-------3----------
g---5-3----------5-3----------5-3-----5-3-----5-3------
d-------5--5---------5--5---------5-------5-------5--5-
a------------------------------------------------------
e------------------------------------------------------

e-----------------------------------------------------------------------------------
b-----------------------------------------------------------------------------------
g-0------12--13--15--13--12--15--13--12--12------12--13--15--13--12--15--13--12--12-
d-----------------------------------------------------------------------------------
a-----------------------------------------------------------------------------------
e-----------------------------------------------------------------------------------
  ^^^^^^^^^^^^^^^^^^^^^^^^^^^^^^^^^^^^^^^^^^^^^^^^^^^^^^^^^^^^^^^^^^^^^^^^^^^^^^^^^^
e------------------------------------------------3------------------3-
b------------------------------------------------3------2---3-------3-
g-12------12--11--10--9--8--7--6--5--4--3--2--1--0------2---3---5---0-
d------------------------------------------------0------2---3---6---0-
a------------------------------------------------2------0---1---6---2-
e------------------------------------------------3--------------4---3-
  ^^^^^^^^^^^^^^^^^^^^^^^^^^^^^^^^^^^^^^^^^^^^^
e-0--------0-0-0------------
b----3-1-3-------1-3-3-3-3b-
g---------------------------
d---------------------------
a---------------------------
e---------------------------

^ = tremlo picking
|*---*| = repeat section

Corrections/comments/etc. can be sent to: springwaffle@comcast.net
Comments