Tego Calderon - Pa Que Retozen Chords & Tabs

 

Pa Que Retozen Chords & Tabs

Tego Calderon Chords & Tabs

Version: 1 Type: Tab 0 ratings
1 star 2 stars 3 stars 4 stars 5 stars
comments

Pa Que Retozen Tab

   
Tego Calderon is a popular reggaeton artist. He has two albums that I know of: El
Abayarde, and El Enemi de los Guasibiri.

-------------------------------------------------------------------------------
			     Pa' Que Retozen - Tego Calderon
-------------------------------------------------------------------------------
Tabbed by: Capicu
Email: Capicu@gmail.com

Tuning: normal

INTRO
e|---------------------------------------------------------------------------|
B|----------13---------13----------------------------------------------------|
G|-9---10------9---10--------------------------------------------------------|
D|---------------------------------------------------------------------------|
A|---------------------------------------------------------------------------|
E|---------------------------------------------------------------------------|

part a
repeat 4x.   on the 4th time stop before the stars then move on to part 1
e|---8-----------8---------------10--------*-----10----------------------------|
B|-----12-10-------12-10-10---------13-12--*--------13-12-12-------------------|
G|-9-----------9--------------10-----------*--10-------------------------------|
D|-----------------------------------------*---------------------------------|
A|-----------------------------------------*---------------------------------|
E|-----------------------------------------*---------------------------------|
[ Tab from: http://www.guitartabs.cc/tabs/t/tego_calderon/pa_que_retozen_tab.html ]
part 1
e|------------------------12-12-12-------------------------------------------|
B|----------13---------------------13-12-------------------------------------|
G|-9---10------9---10--9-----------------------------------------------------|
D|---------------------------------------------------------------------------|
A|---------------------------------------------------------------------------|
E|---------------------------------------------------------------------------|

part b
repeat 2x on the second time stop before the stars. then repeat twice again and move on to part 2
e|---8-----------8---------------10--------*-----10----------------------------|
B|-----12-10-------12-10-10---------13-12--*--------13-12-12-------------------|
G|-9-----------9--------------10-----------*--10-------------------------------|
D|-----------------------------------------*---------------------------------|
A|-----------------------------------------*---------------------------------|
E|-----------------------------------------*---------------------------------|

part 2: repeat 2x
e|---------------------------------------------------------------------------|
B|-12-11-12-11-12-11-10---12-11-10----12-11-12-11-12-11-10---12-11-10--------|
G|---------------------------------------------------------------------------|
D|---------------------------------------------------------------------------|
A|---------------------------------------------------------------------------|
E|---------------------------------------------------------------------------|

e|-12-11-12-11-12-11-10---12-11-10----12-11-12-11-12-11-10---12-11-10--------|
B|---------------------------------------------------------------------------|
G|---------------------------------------------------------------------------|
D|---------------------------------------------------------------------------|
A|---------------------------------------------------------------------------|
E|---------------------------------------------------------------------------|

now go back to part a
then do part 2 again

^repeat this twice and thats it

i felt this needed to be done

and it is done.

comments, suggestions, email - capicu@gmail.com
peace 1
Comments