Tegan And Sara - Where Does The Good Go Chords & Tabs

 

Where Does The Good Go Chords & Tabs

Tegan And Sara Chords & Tabs

Version: 1 Type: Tab 0 ratings
1 star 2 stars 3 stars 4 stars 5 stars
comments

Where Does The Good Go Tab

   
----------------------------------------------------------------------------
		WHERE DOES THE GOOD GO- Tegan and Sarah
----------------------------------------------------------------------------
Tabbed by: Sean
Email: wings217@hotmail.com

Tuning: EADGBe (standard)

Intro/Verse:
e|--------------------------------------------------------|
B|--------------------------------------------------------|
G|--9-x-x-9-9-9--8-x-x-8-8-8--6-x-x-6-6-6--4-x-x-4-x-x-4--|
D|--9-x-x-9-9-9--8-x-x-8-8-8--6-x-x-6-6-6--4-x-x-4-x-x-4--|
A|--7-x-x-7-9-7--6-x-x-6-7-6--4-x-x-4-6-4--2-x-x-2-x-x-2--|
E|--------------------------------------------------------|
palm mute................................................
[ Tab from: http://www.guitartabs.cc/tabs/t/tegan_and_sara/where_does_the_good_go_tab.html ]
pre-chorus:
"look me in the eye and tell me..."
e|--------------------------------------------------------|
B|--------------------------------------------------------|
G|--9-9-9-9-9-9--8-8-8-8-8-8--6-6-6-6-6-6--4-4-4-4-4-4-4--|
D|--9-9-9-9-9-9--8-8-8-8-8-8--6-6-6-6-6-6--4-4-4-4-4-4-4--|
A|--7-7-7-7-9-7--6-6-6-6-7-6--4-4-4-4-6-4--2-2-2-2-2-2-2--|
E|--------------------------------------------------------|


Chorus:
e|--------------------------------------------------------------------------|
B|--------------------------------------------------------------------------|
G|--9----8----9----8----9----8----6----4------------------------------------|
D|--9-x8-8-x8-9-x8-8-x8-9-x8-8-x8-6-x8-4-x8---------------------------------|
A|--7----6----7----6----7----6----4----2------------------------------------|
E|--------------------------------------------------------------------------|

| /  slide up
| \  slide down
| h  hammer-on
| p  pull-off
| ~  vibrato
| +  harmonic
| x  Mute note
============================================================================
Comments