Tegan And Sara - When I Get Up Chords & Tabs

 

When I Get Up Chords & Tabs

Tegan And Sara Chords & Tabs

Version: 1 Type: Tab

When I Get Up Tab

   
Artist: Tegan & Sara
Song: When I Get Up
Album: B-Side
Tuning: Standard, Capo on 5th fret

Intro

e |--------3----------------------------------------|
B |-0h1p0---------1---0----0---------0-----------0--| 
G |---------------2---0------0---------0------------| (x3)
D |-------------------------------------------------|
A |-0-----------------------------------------------|
E |------------1------3----------3----------3-------|

Verse 1 

e |--------3----------------------------------------|
B |-0h1p0---------1---0----0---------0-----------0--| 
G |---------------2---0------0---------0------------| (x2)
D |-------------------------------------------------|
A |-0-----------------------------------------------|
E |------------1------3----------3----------3-------|

I don't need company 
in the company of you 
and I don't need love 
'Cause your love will do 

Chorus

e |------------------------------|
B |-------0-----------0----------| 
G |----------0-----2-----2-------| (x2)
D |------------------------------|
A |----2-------------------------|
E |-0-----------1----------------|

And I've got you
And you've got me 

e |--------------------------------------|
B |-------0---------0-----------------0--| 
G |-----------0---------0-----(x2)-------| 
D |--------------------------------------|
A |--------------------------------------|
E |----3----------3----------------3-----|

...And that's all we need 

Interlude = Intro (x2)

Verse 2

e |--------3----------------------------------------|
B |-0h1p0---------1---0----0---------0-----------0--| 
G |---------------2---0------0---------0------------| (x2)
D |-------------------------------------------------|
A |-0-----------------------------------------------|
E |------------1------3----------3----------3-------|


I don't need air 
I don't need to breathe 
And I don't need rest 
I don't have time to sleep 

Chorus
[ Tab from: http://www.guitartabs.cc/tabs/t/tegan_and_sara/when_i_get_up_tab.html ]
e |------------------------------|
B |-------0-----------0----------| 
G |----------0-----2-----2-------| (x2)
D |------------------------------|
A |----2-------------------------|
E |-0-----------1----------------|

'Cause I've got you
And you've got me

e |--------------------------------------|
B |-------0---------0-----------------0--| 
G |-----------0---------0-----(x2)-------| 
D |--------------------------------------|
A |--------------------------------------|
E |----3----------3----------------3-----|

...And thatís all we need

Interlude

e |-------------------------------------|
B |---------1--------------1------------| 
G |---0h2-------2--------------0--------| (x4)
D |-3----------------0h2----------------|
A |---------------3---------------------|
E |-------------------------------------|

Bridge

e |-----------------------------------|
B |-------1--------------1------------| 
G |----2-------2--------------0-------| (x7)
D |-3-----------------2---------------|
A |---------------3-------------------|
E |-----------------------------------|

When I get up, so do you
When you get home
I sleep right through
And on the road
I sleep alone
And I canít wait... 

e |--------------------------------------|
B |-------0---------0-----------------0--| 
G |-----------0---------0-----(x2)-------| 
D |--------------------------------------|
A |--------------------------------------|
E |----3----------3----------------3-----|

...until I'm home

Chorus

Outro

e |--------3----------------------------------------|
B |-0h1p0---------1---0----0---------0-----------0--| 
G |---------------2---0------0---------0------------| (x2)
D |-------------------------------------------------|
A |-0-----------------------------------------------|
E |------------1------3----------3----------3-------|

e |---0--------|
B |---1--------| 
G |---2--------| 
D |---2--------|
A |---0--------|
E |---0--------|