Tegan And Sara - Walking With A Ghost Chords & Tabs

 

Walking With A Ghost Chords & Tabs

Tegan And Sara Chords & Tabs

Version: 1 Type: Bass Tab 0 ratings
1 star 2 stars 3 stars 4 stars 5 stars
comments

Walking With A Ghost Bass Tab

song: walking with a ghost
artist: tegan and sara
tuning: standard
tabber: chris barry


intro: guitar


G||----------------------------------------------|
D||------7--9------------------------------------|
A||-44---7---9-----------------------------------|X3
E||---------------7--5---------------------------|

G||---------------------------------------------|
D||-44------------------------------------------|
A||-----55--77---7--5---------------------------|X4
E||---------------------------------------------|

G||----------------------------------------------|
D||------7--9------------------------------------|
A||-44---7---9-----------------------------------|X4
E||---------------7--5---------------------------|
[ Tab from: http://www.guitartabs.cc/tabs/t/tegan_and_sara/walking_with_a_ghost_btab.html ]
G||---------------------------------------------|
D||-44------------------------------------------|
A||-----55--77--(7)-(5)-------------------------|X9
E||---------------------------------------------|

G||----------------------------------------------|
D||------7--9------------------------------------|
A||-44---7---9-----------------------------------|X3
E||---------------7--5---------------------------|

G||----------------------------------------------|
D||-----------------44---------------------------|
A||-----55--77--------55--77---------------------|X2
E||-22-------------------------------------------|

G||----------------------------------------------|
D||----------------------------------------------|
A||-----55--77-----------------------------------|X1
E||-22-------------------------------------------|

guitar and singing until ending
Comments