Tegan And Sara - I Cant Take It Chords & Tabs

 

I Cant Take It Chords & Tabs

Tegan And Sara Chords & Tabs

Version: 1 Type: Tab 0 ratings
1 star 2 stars 3 stars 4 stars 5 stars
comments

I Cant Take It Tab

   
-----------------------------------------------------------------------------
			     I Can't Take It - Tegan And Sara
-----------------------------------------------------------------------------
Tabbed by:Deb
Email:dgerszo@hotmail.com

Tuning: EBGDGE
[ Tab from: http://www.guitartabs.cc/tabs/t/tegan_and_sara/i_cant_take_it_tab.html ]
Verse
E|-------------------------------------------------------------|
B|-------------------------------------------------------------|
G|-------------------------------------------------------------|
D|----0-------0-------0-------0--------------------------------| Palm Mute
G|-0-0---0-0-0---0-0-0---0-0-0-0---0-------0-------0-------0---|
E|------------------------------0-0---0-0-0---0-0-0---0-0-0-0--|

Chorus
   Em       D   C
E|-0--------0---0--      E|-0--2--0--|
B|-8--------7---5--      B|-0--3--0--|
G|-9--------7---5--  or  G|-0--2--0--|
D|-9--------7---5--      D|-2--0--2--|
G|-9--------7---5--      G|-4-----5--|
E|-0---------------      E|-0--------|
  Don't move so slow...

Then the "I Can't take it" part is

   C  G
E|-0--3--|
B|-5--0--|
G|-5--0--|
D|-5--0--|
G|-5--0--|
E|----3--|

After that, it is the chorus part again. And that's it.
Comments