Teeth - Talambuhay Ng Isang Tinapa Chords & Tabs

 

Talambuhay Ng Isang Tinapa Chords & Tabs

Teeth Chords & Tabs

Version: 1 Type: Tab 0 ratings
1 star 2 stars 3 stars 4 stars 5 stars
comments

Talambuhay Ng Isang Tinapa Tab

                 "TALAMBUHAY NG ISANG TINAPA" BY TEETH
                      transcribed by: freongang 
                  visit me at: freongang_81@yahoo.com
                        freongang_08@yahoo.com

 intro:
e|------------------------------------------|
B|------------------------------------------|
G|-3-3-3-3-3-3-3-3-3-3-3-3-3-3-3-3-3-3-3-3--|
D|-3-3-3-3-3-3-3-3-3-3-3-3-3-3-3-3-3-3-3-3--|
A|-1-1-1-1-1-1-1-1-1-1-1-1-1-1-1-1-1-1-1-1--|
E|------------------------------------------|

 malawak ang tubig... 
e|-----------------  ----------------------|
B|-----------------  --(guitar riff)-------|
G|-(bass riff)-----  ----------------------|
D|-----------------  -----------4-4-4------|
A|-----------2-2-2-  -2-5-7-7-7-2-2-2------|
E|-0-3-5-5-5-------  -0-3-5-5-5------------|
[ Tab from: http://www.guitartabs.cc/tabs/t/teeth/talambuhay_ng_isang_tinapa_tab.html ]
 lumipad ka dyan sa tubig... X2
e|-----------------------------------------|
B|-----------------------------------------|
G|-3-3-3-3--5-5-5-5------------------------|
D|-3-3-3-3--5-5-5-5--5--7--8---------------|
A|-1-1-1-1--3-3-3-3--5--7--8---------------|
E|-------------------3--5--6---------------|

 iyong tuklasin ang ginhawa....  X4
e|--------------------------------------------------------------------|
B|--------------------------------------------------------------------|
G|--------------------------------------------------------------------|
D|-9-9-9-9-9-9-12-12-12-12-12-12--------------------------------------|
A|-7-7-7-7-7-7-10-10-10-10-10-10-10-10-10-10-10-10-12-12-12-12-12-12--|
E|-------------------------------8--8--8--8--8--8--10-10-10-10-10-10--|

                   "freongang"
Comments