Teeth - Prinsesa Chords & Tabs

 

Prinsesa Chords & Tabs

Teeth Chords & Tabs

Version: 3 Type: Tab 0 ratings
1 star 2 stars 3 stars 4 stars 5 stars
comments

Prinsesa Tab

   
m/ Hello Everybody \m/


Im Rey Anthony Silva. Ako ang lead ng aming band. Sa Pasig Catholic College ako
nag-aaral kasama ng iba kong bandma8tes.

Lead: Ako
Rhythm: Andreu 
Bass: Bogus
Drum: Judd
Vocal: Gian    

 Im 90% sure about this ^_^ wakekekke. 

SANA MAGUSTUHAN NYO!!!! \m/ RocK oN \m/




Intro:

D    C#    C    G
|--------------------|     ---- pang Rhythm e2...
|--------------------|
|-7----7----5--------|			
|-7----7----5----5---|
|-5----4----3----5---|
|----------------3---|

For lead:  1st-4th string only!
D-D7-C-G



|------------6-7-------|-------6-7-----|
|---7-7---7------7-7---|-----7-----7---|
|-------6--------------|---6-----------|   7x nyo gawin
|----------------------|---------------|
|----------------------|---------------|
|----------------------|---------------|

Verse:
  D    C#    C    G
|--------------------|
|--------------------|
|-7----7----5--------|
|-7----7----5----5---|
|-5----4----3----5---|
|----------------3---|






 Chorus:
[ Tab from: http://www.guitartabs.cc/tabs/t/teeth/prinsesa_tab_ver_3.html ]
Dalhin mo ko, sa iyong palasyo.....
   A     D
|----------|
|----------|
|-------7--|
|--7----7--|
|--7----5--|
|--5-------|


ADLIB:
|------------6-7-------|-------6-7-----|
|---7-7---7------7-7---|-----7-----7---|
|-------6--------------|---6-----------|   7x nyo gawin
|----------------------|---------------|
|----------------------|---------------|
|----------------------|---------------|

|---------------12-13-------|-------12-13-------|
|---13-13----13-------12-12-|-----13-----12-12--|
|---------12----------------|---12--------------|   7x nyo gawin
|---------------------------|-------------------|
|---------------------------|-------------------|
|---------------------------|-------------------|

Oh aking prinsesa |  ha-a-ah    
e|-----------------|------------|
B|-----------------|------------|
G|----4------------|----x-------|
D|----5------------|----5-------|
A|----5------------|----5-------|
E|----3------------|----3-------|

CODA:
Prinsesa, prinsesa    Prinsesa, a-ha-ah... (Fade)               


Yun lng!!!! ^_^ sana magustuhan nyo!!! ^_^   

 Any comments  and suggestion?

Add nyo na lng me sa friendster   ra_anthony18@yahoo.com at ra_my2nd_acc@yahoo.com.
Messagen nyo na lng me dun uki ^_^ tnx!
Comments