Teeth - Laklak Chords & Tabs

 

Laklak Chords & Tabs

Teeth Chords & Tabs

Version: 1 Type: Tab 0 ratings
1 star 2 stars 3 stars 4 stars 5 stars
comments

Laklak Tab

   
Laklak
Teeth

Intro:
e-----------------|
B-----------------|
G-----------------|
D-4-44--44-4-10-7-| 4x
A-4-44--44-4-10-7-|
E-2-22--22-2-8--5-|

Verse 1:
e-----------------|
B-----------------|
G-----------------|
D-4-44--44-4-10-7-| 4x
A-4-44--44-4-10-7-|
E-2-22--22-2-8--5-|

Chorus:
e----------------------------------|
B----------------------------------|
G----------------77777777----------|
D-44444444444444-77777777-77777777-|
A-44444444444444-55555555-77777777-|
E-22222222222222----------55555555-|

e----------------------------------|
B----------------------------------|
G----------------77777777----------|
D-44444444444444-77777777-77777777-|
A-44444444444444-55555555-77777777-|
E-22222222222222----------55555555-|

e----------------------------------|
B----------------------------------|
G----------------77777777----------|
D-44444444444444-77777777-77777777-|
A-44444444444444-55555555-77777777-|
E-22222222222222----------55555555-|
[ Tab from: http://www.guitartabs.cc/tabs/t/teeth/laklak_tab.html ]
e--------------------------------------------------------------------|
B--------------------------------------------------------------------|
G--------------------------------------------------------------------|
D-5555555555555555-444444444444444-5555555555555555-4444444444444444-|
A-5555555555555555-444444444444444-5555555555555555-4444444444444444-|
E-3333333333333333-222222222222222-3333333333333333-2222222222222222-|

e------------------------------|
B------------------------------|
G------------------------------|
D-5555555555555555-44444444-2~-|
A-5555555555555555-44444444-2~-|
E-3333333333333333-22222222-0~-|

Interlude:
e-----------------|
B-----------------|
G-----------------|
D-4-44--44-4-10-7-| 4x
A-4-44--44-4-10-7-|
E-2-22--22-2-8--5-|

Verse 2:
e-----------------|
B-----------------|
G-----------------|
D-4-44--44-4-10-7-| 4x
A-4-44--44-4-10-7-|
E-2-22--22-2-8--5-|

(Repeat Chorus)

Adlib:
e-----------------|
B-----------------|
G-----------------|
D-4-44--44-4-10-7-| 4x
A-4-44--44-4-10-7-|
E-2-22--22-2-8--5-|

(Repeat Chorus)

Outro:
e-----------------|
B-----------------|
G-----------------|
D-4-44--44-4-10-7-| 4x
A-4-44--44-4-10-7-|
E-2-22--22-2-8--5-|

End:
e-----|
B-----|
G-----|
D-4~~-|
A-4~~-|
E-2~~-|

-----------------------------------------------------------------------
Di ko lang alam kung tama na ba 'to. Pero ok naman yata.. Try niyo nalang kung tama na 
'to at ie-mail nalang ako.. Wala pa kasing gumagawa ng tab dito. Puros chords lang.. 
nalang po..

Kumusta nalang pala sa mga kabanda ko dito sa Tacloban, ang "FIGURE05" (u know hu u are..)

Visit our website: www.freewebs.com/figure05band
For comments & suggestions: cicatrix17@yahoo.com

[ C!C@tr!x ]
Christopher Co (FIGURE05)
V&G Subd., Tacloban City
Comments