Teeth - Gubat Chords & Tabs

 

Gubat Chords & Tabs

Teeth Chords & Tabs

Version: 1 Type: Tab 0 ratings
1 star 2 stars 3 stars 4 stars 5 stars
comments

Gubat Tab

                             "GUBAT" BY TEETH
                         transcribed by: freongang
                     visit me at: freongang_81@yahoo.com    
                          freongang_08@yahoo.com

                      MY FAVORITE SONG OF THE TEETH
                 
intro: bass riffs
e|--------------------------------|
B|--------------------------------|
G|--------------------------------|
D|--------------------------------|
A|---------0h2-3-2-0--------------|
E|-2-2-0-2-----------2-2-0-2------|

 guitar riffs
e|--------------------------------|
B|----------^---------------------|
G|---------0-4-5-4-0--------------|
D|---------0-2-3-2-0--------------|
A|-4-4-0-4------------4-4-0-4-----|
E|-2-2-0-2------------2-2-0-2-----|

 sa kagubatan may liblib na lugar...
e|-------------------------------------|
B|-------------------------------------| do this as many times
G|-------------------------------------|
D|-4-4-4-4-4-4-4-4-2-2-2-2-2-2-2-2-2---|
A|-4-4-4-4-4-4-4-4-2-2-2-2-2-2-2-2-2---|
E|-2-2-2-2-2-2-2-2-0-0-0-0-0-0-0-0-0---|
[ Tab from: http://www.guitartabs.cc/tabs/t/teeth/gubat_tab.html ]
 may mga bagay na nagbago sa ating paglalakbay...
e|----------------------------------------------------|
B|----------------------------------------------------|
G|----------------------------------------------------|
D|-7-7-7-7-7-7-7-7-8-8-8-8-8-8-8-8-3-5-5--3-5-5-5-5---|
A|-7-7-7-7-7-7-7-7-8-8-8-8-8-8-8-8-3-5-5--3-5-5-5-5---|
E|-5-5-5-5-5-5-5-5-6-6-6-6-6-6-6-6-1-3-3--1-3-3-3-3---|

 solo:
e|--9/12-12-11-----------------14-----------------|
B|-------------13-12-----14-15----17-15-14-15-----|
G|------------------------------------------------|
D|------------------------------------------------|
A|------------------------------------------------|
E|------------------------------------------------|

e|-12/16-16-16h17-------12/16-16-16h17------------|
B|----------------17-16----------------17-16------|
G|------------------------------------------------|
D|------------------------------------------------|
A|------------------------------------------------|
E|------------------------------------------------|

e|-------14------------------------14----------------------|
B|-14-15----17-15-14-15-----14-15-----17-15-14-15-17-19b---|
G|---------------------------------------------------------|
D|---------------------------------------------------------|
A|---------------------------------------------------------|
E|---------------------------------------------------------|
Comments