Teeth - Galit Sa Mundo Chords & Tabs

 

Galit Sa Mundo Chords & Tabs

Teeth Chords & Tabs

Version: 1 Type: Tab 0 ratings
1 star 2 stars 3 stars 4 stars 5 stars
comments

Galit Sa Mundo Tab

                     "GALIT SA MUNDO" BY TEETH
                       transcribed by: freon
                visit me at: freongang_81@yahoo.com
                      freongang_08@yahoo.com

    
           NOTE: sa mga ngemail,ska sa ngpaparequest ng tab sa akn 
                        tnx sa tiwala nyo....


 intro: X3             then proceed here
e|-----------------  ----------------------|
B|-----------------  ----------------------|
G|-----------------  ----------------------|
D|-------6-6-6-5-5-  --4-4-4-4-4-4---------|
A|-5-5-5-4-4-4-3-3-  --2-2-2-2-2-2---------|
E|-3-3-3-----------  ----------------------|
 
 bakit ba may mga taong merong...
e|-----7-----------5--------7------------5------|
B|--7-----------0--------7------------0---------|
G|--7---------5----------7----------5-----------|
D|----------------------------------------------|
A|----------------------------------------------|
E|----------------------------------------------|
[ Tab from: http://www.guitartabs.cc/tabs/t/teeth/galit_sa_mundo_tab.html ]
 di nakuntento, nagdamay pa kayo...( repeat intro)
e|-------------------------------------|
B|-------------------------------------|
G|-------------------------------------|
D|-------6-6-6-5-5---------------------|
A|-5-5-5-4-4-4-3-3---------------------|
E|-3-3-3-------------------------------|

 ganyan ang buhay sa mundo...
e|--------------------------------------------------------------|
B|--------------------------------------------------------------|
G|--------------------------------------------------------------|
D|-5-5-5-5-9-9-9-9-10-10-10-10-----5-5-5-5-10-10-10-10-9-9-9-9--|
A|-3-3-3-3-7-7-7-7-8--8--8--8------3-3-3-3-8--8--8--8--7-7-7-7--|
E|--------------------------------------------------------------|

 sawa ka na ba sa buhay mo...
e|----------------------------------------------|
B|----------------------------------------------|
G|----------------------------------------------|
D|--7-7-7--8-----5-5-5--6-----------------------|
A|--5-5-5--6-----3-3-3--4-----------------------|
E|----------------------------------------------|

                  FREONGANG
Comments