Teenage Bottlerocket - Radio Chords & Tabs

 

Radio Chords & Tabs

Teenage Bottlerocket Chords & Tabs

Version: 1 Type: Bass Tab

Radio Bass Tab

Band: Teenage Bottle Rocket
Song: Radio
Album: Total

Intro
G|-|----------------------------|x2
D|-|----------------------------|
A|-|---------------3(x16)-5(x16)|
E|3|-3(x16)-3(x16)--------------|
[ Tab from: http://www.guitartabs.cc/tabs/t/teenage_bottlerocket/radio_btab.html ]
Verse
G|------------------------------|x4
D|------------------------------|
A|--------3(x8)-5(x8)-----------|
E|-3(x16)-----------------------|

Intro x1
Verse x4
Intro x1

Bridge
G|------------------------------|
D|------------------------------|
A|-3(x16)-5(x16)-3(x16)-5(x9)---|
E|------------------------------|

Intro x4
End On A|-3

Thats It