Teen Idols - Shes A Poser Chords & Tabs

 

Shes A Poser Chords & Tabs

Teen Idols Chords & Tabs

Version: 1 Type: Tab 0 ratings
1 star 2 stars 3 stars 4 stars 5 stars
comments

Shes A Poser Tab

-------------------------------------------------------------------------------
                             SHE'S A POSER - Teen Idols
-------------------------------------------------------------------------------

MadeBy:Jonathan Van Pelt : Superdude52@hotmail.com
Added By Mikhailo

   Verse
e|---------------------------------------------------------------------------|
B|---------------------------------------------------------------------------|
G|----------------------------------7--7--7--7--7---9--9--9--9--9--9--9------|
D|--7--7--7--7--7--7--7--7--7--7----7--7--7--7--7---9--9--9--9--9--9--9------|
A|--7--7--7--7--7--7--7--7--7--7----5--5--5--5--5---7--7--7--7--7--7--7------|
E|--5--5--5--5--5--5--5--5--5--5---------------------------------------------|

   Chorus  3x
e|---------------------------------------------------------------------------|
B|---------------------------------------------------------------------------|
G|--9--9--9--9----7--7--7--7--7--7--7--7-------------------------------------|
D|--9--9--9--9----7--7--7--7--7--7--7--7----7--7--7--7--7--7--7--------------|
A|--7--7--7--7----5--5--5--5--5--5--5--5----7--7--7--7--7--7--7--------------|
E|------------------------------------------5--5--5--5--5--5--5--------------|
[ Tab from: http://www.guitartabs.cc/tabs/t/teen_idols/shes_a_poser_tab.html ]
   Second Part of Chorus
e|---------------------------------------------------------------------------|
B|---------------------------------------------------------------------------|
G|--7--7--7--7--7---9--9--9--9--9--9---7--7--7--7--7---9--9--9--9--9--9------|
D|--7--7--7--7--7---9--9--9--9--9--9---7--7--7--7--7---9--9--9--9--9--9------|
A|--5--5--5--5--5---7--7--7--7--7--7---5--5--5--5--5---7--7--7--7--7--7------|
E|---------------------------------------------------------------------------|

   Bridge Part One 1x
e|---------------------------------------------------------------------------|
B|---------------------------------------------------------------------------|
G|---------------------------------------------------------------------------|
D|--7-7-7-7-7-7--6-5--4-4-4-4-4-4--7-7-7-7-7--6-5--4-4-4-4-4-4---------------|
A|--7-7-7-7-7-7--6-5--4-4-4-4-4-4--7-7-7-7-7--6-5--4-4-4-4-4-4---------------|
E|--5-5-5-5-5-5--4-3--2-2-2-2-2-2--5-5-5-5-5--4-3--2-2-2-2-2-2---------------|

   Bridge Part Two
e|---------------------------------------------------------------------------|
B|---------------------------------------------------------------------------|
G|-----------------------------------------------9--9--9--9--9--9--9--9------|
D|--7-7-7-7-7-7--6-5--4-4-4-4-4-4--7-7-7-7-7-7---9--9--9--9--9--9--9--9------|
A|--7-7-7-7-7-7--6-5--4-4-4-4-4-4--7-7-7-7-7-7---7--7--7--7--7--7--7--7------|
E|--5-5-5-5-5-5--4-3--2-2-2-2-2-2--5-5-5-5-5-5-------------------------------|

The Outro is the Verse played faster, if you know the solo part e-mail me 
with it.

------------------------------------------------------------------------------
Comments