Ted Nugent - Great White Buffalo Chords & Tabs

 

Great White Buffalo Chords & Tabs

Ted Nugent Chords & Tabs

Version: 3 Type: Tab 0 ratings
1 star 2 stars 3 stars 4 stars 5 stars
comments

Great White Buffalo Tab

  great white buffalo by TED NUGENT

main riff
----------------------2-2-h3-p3--0-----------------|
----------------------3----------2-2-h3-p3---------|
----------------------2----------2-----------------|
----2-p2---------2-0--0----------2-----------------|
---------p2----------------------------------------|
-0-----------0-3-----------------------------------|
[ Tab from: http://www.guitartabs.cc/tabs/t/ted_nugent/great_white_buffalo_tab_ver_3.html ]
verse
-----------------|-2-2-h3-p3--0-----------|
-----------------|-3----------2-2-h3-p2---|
-----------------|-2----------2-----------|
-2-2-2-2-2-2-2-2-|-0----------2-----------|
-2-2-2-2-2-2-2-2-|------------------------|
-0-0-0-0-0-0-0-0-|------------------------|
|palm muted     |

chords
-----2-----------------------------------|
-----3---2-------------------------------|
-1---2---2---1---------------------------|
-2-------2---2---------------------------|
-2-----------2---------------------------|
-0-----------0---------------------------|    for questions IM kookookirby/UncleTed7878
Comments