Ted Nugent - Dog Eat Dog Chords & Tabs

 

Dog Eat Dog Chords & Tabs

Ted Nugent Chords & Tabs

Version: 1 Type: Tab 0 ratings
1 star 2 stars 3 stars 4 stars 5 stars
comments

Dog Eat Dog Tab

   
This is my first attempt at tabbing....so it may be wrong, but I hope it
helps.

DOG EAT DOG--BY TED NUGENT


A5(PLAY FAST USING ALTERNATING
UP AND DOWN STROKES)
[---------------------------------------------------------------------------------------------]
[---------------------------------------------------------------------------------------------]
[---------------------------------------------------------------------------------------------]
[-2-2-2-2--2-2-2-2--2-2-2-2--2-2-2-2--2-2-2-2--2-2-2-2--2-2-2-2--2-2-2-2----------------------]
[-0-0-0-0--0-0-0-0--0-0-0-0--0-0-0-0--0-0-0-0--0-0-0-0--0-0-0-0--0-0-0-0----------------------]
[---------------------------------------------------------------------------------------------]


A5.....................D.....A5.................C.........A5.................D....C....A5........Chords
...D..D.u.D.u..........D.....D..D.u.D.u.........D.........D..D.u.D.u.........D....D....D.....u...strokes
[----------------------2-----------------------------------------------------2---------------5--]
[----------------------3------------------------5----------------------------3----5----------5--]
[----------------------2------------------------5----------------------------2----5-------------]
[--2--2-2-2-2----------0-----2--2-2-2-2---------5---------2--2-2-2-2---------0----5-----2-------]
[--0--0-0-0-0----------------0--0-0-0-0---------3---------0--0-0-0-0--------------3-----0-------]
[-----------------------------------------------------------------------------------------------]
[ Tab from: http://www.guitartabs.cc/tabs/t/ted_nugent/dog_eat_dog_tab.html ]
repeat the A5-D-A5-C-----A5-D-C-A5 above... but on the last (A5) do This;
...A5
...D...u
[---------]----------------------------- [-------------------------------------]
[-----2---]------------------------------[----PLAY THIS ON LAST TIME-----------]
[-----2---]------------------------------[---------------AROUND----------------]
[-2-------]------------------------------[-------------------------------------]
[-0-------]------------------------------[-----------0----------0-----------0--]
[---------]------------------------------[-----0-H-3------0-H-3-------0-H-3----]
REPEAT FROM HERE
______________________________________________________________________________________________________
SLIGHTLY PALM MUTE ON MOST OF THE VERSE CHORDS
*B=BEND *PO=PULL OFF
*B&R= BEND AND RELEASE



[----------------------------------------5------------------------3------------][-------------------------]
[----------------------------------------5------------------------3------------][-------------------------]
[-----5--5-5-------5-5---------------------------5--5-2--2--------------1--1-2-][-----5--5-5-----5-5--2---]
[--2--5--5-5--2-2--5-5--2---------------------2--5--5-2--2--------------1--1-2-][--2--5--5-5-2-2-5-5--2---]
[--0----------0-0-------0---3-*B-*PO-0--------0--------------------------------][--0---------0-0----------]
[-------------------------------------------------------------3------3---------][-------------------------]

[---------------------------------------------------]
[----------------------------5------------5--5-5-5--]
[-2-5-------3----------------4------------4--4-4-4--]
[-2-5--5----3--3-------------2------------2--2-2-2--]
[---3--5----1--3---2--2-2-2-----2--2-2-2------------]
[------3-------1---0--0-0-0-----0--0-0-0------------]

[-----------------------------5---------------------------------------------------]
[-----------------------------5---------------------------------------------------]
[-2-2-0---5-5--2--------------------2--0---5-5--2------7-*B&R-5------2-0--5-5--2--]
[-2-2-0---5-5--2--------------------2--0---5-5--2--------------7-----2-0--5-5--2--]
[-0-----0------0---3-B-PO-0-------0------0-------------------------0--------------]
[---------------------------------------------------------------------------------]

[------------------------------------------------------]
[-------------------------------5------------5--5-5-5--]
[------5------3-----------------4------------4--4-4-4--]
[------5--5---3--3--------------2------------2--2-2-2--]
[-0----3--5---1--3---2--2-2-2------2--2-2-2------------]
[---------3------1---0--0-0-0------0--0-0-0------------]

START OVER AT THE TOP
Comments