Ted Nugent - Cat Scratch Fever Chords & Tabs

 

Cat Scratch Fever Chords & Tabs

Ted Nugent Chords & Tabs

Version: 6 Type: Tab 0 ratings
1 star 2 stars 3 stars 4 stars 5 stars
comments

Cat Scratch Fever Tab

   
^= bend
h= hammer
~= multiple bends


E--2^------------------------------------2^-----------|
B--4^------------------------------------4^-----------|
G-----24-55--2-4h2-5----2-4-55--5h4h2-2--------------|
D-----2-4-55--2-4h2-5----2-4-55--5h4h2-2--------------|
A-----0------------------0----------------------------|
E-----------------------------------------------------|

[ Tab from: http://www.guitartabs.cc/tabs/t/ted_nugent/cat_scratch_fever_tab_ver_6.html ]
E-----------------------------------------------------|
B-----------------------------------------------------|
G--2-4-55--2-4h2-5------2-4-55--5h4h2-2---------------|
D--2-4-55--2-4h2-5------2-4-55--5h4h2-2---------------|
A--0--------------------0-----------------------------|
E------------------0-23-----------------0-23----------|


E-----------------------------------------------------|
B---------------------------------------12^14h12-10~~-|
G--2-4-55--2-4h2-5------2-4-55--5h4h2-2---------------|
D--2-4-55--2-4h2-5------2-4-55--5h4h2-2---------------|
A--0--------------------0-----------------------------|
E------------------0-23-------------------------------|
Comments