Ted Leo - Since U Been Gone Chords & Tabs

 

Since U Been Gone Chords & Tabs

Ted Leo Chords & Tabs

Version: 1 Type: Tab 0 ratings
1 star 2 stars 3 stars 4 stars 5 stars
comments

Since U Been Gone Tab

   
-------------------------------------------------------------------------------
			     Since U Been Gone - Ted Leo
-------------------------------------------------------------------------------
Tabbed by:Mike Faires
Email:Scika_@hotmail.com

Tuning:Standard


This is Ted Leo's Cover of Since u been gone by Kelly Clarkson. I've been constantly
watching the video and this is what I've picked up from it. Just listen to the song and
watch what he does and youll get it. Its pretty easy to play once you fullu understand.


Verse: (palm muted)
e|--------------------------------------------------------------------------|
B|--------------------------------------------------------------------------|
G|--------------------------------------------------------------------------|
D|-----------------2222-----------------------------------------------------|
A|--2222-2222-2222-3333-2222-2222-2222-2222---------------------------------|
E|--3333-3333-3333------0000-0000-0000-1111---------------------------------|
    G               C        Em         F
(I'll just call them G,C,Em, and F)

G
Here's the thing
               C
We started out friends
Em                      F
It was cool but it was all pretend
G         C              Em        F
Yeah yeah since you been gone
G                      C
Dedicated you took the time
Em                           F
Wasn't long til I called you mine
G         C              Em
Yeah yeah since you been gone
F                  G
And all you'd ever hear me say
   C              Em
Is how I pictured me with you
        F             G
That's all you'd ever hear me say

(pause)            Bm C G
But since you been gone
       Bm             C     G
I can breathe for the first time
              Bm  C    G
I'm so movin' on yeah yeah
          Em         A         D
Thanks to you now I get what I want
C (palm mute)
Since you been gone


Between Chorus and second verse:
[ Tab from: http://www.guitartabs.cc/tabs/t/ted_leo/since_u_been_gone_tab.html ]
e|--------------------------------------------------------------------------|
B|--------------------------------------------------------------------------|
G|-----------------2222-----------------------------------------------------|
D|-----------------0000-----------------------------------------------------|
A|--2222-2222-2222-3333-----------------------------------------------------|
E|--3333-3333-3333----------------------------------------------------------|


G                            C
How can I put it, you put me on
Em                           F
I even fell for that stupid love song
G            C             Em
Yeah, yeah, since you been gone
F                  G
How come I'd never hear you say
C            Em
I just wanna be with you
F               G
Guess you never felt that way

(pause)            Bm C G
But since you been gone
       Bm             C     G
I can breathe for the first time
              Bm  C    G
I'm so movin' on yeah yeah
          Em         A         D
Thanks to you now I get what I want
C (palm mute)

Bridge thing:

e|---3333-3333-10-10-10-10--------------------------------------------------|
B|---3333-3333-10-10-10-10--------------------------------------------------|
G|---0000-0000-0--0--0--0-----x2--------------------------------------------|
D|---2222-2222-9--9--9--9---------------------------------------------------|
A|---2222-3333-10-10-10-10--------------------------------------------------|
E|--------------------------------------------------------------------------|


Then a few bars just on the 10th fret chord thing with focusing on picking up the high E 
on the upstokes.


Then "Maps" by the Yeah yeah yeahs.


Em              G
Wait they don't love you like i love you
Em              G
Wait they don't love you like i love you
C               G
Maps...........
D               G
Wait they don't love you like i love you

x3


e|--10-10-10-10--10-10-10-10--10--3333--------------------------------------|
B|--10-10-10-10--10 10-10-10--10--3333--------------------------------------|
G|--0--0--0--0---0--0--0- 0---0---0000--------------------------------------|
D|--0--0--0--0---0--0--0--0---0---0000--------------------------------------|
A|--10-10-10-10--9--9--9--9---10--2222--------------------------------------|
E|--------------------------------3333--------------------------------------|

A couple of times. Then back into the chorus


(pause)            Bm C G
But since you been gone
       Bm             C     G
I can breathe for the first time
              Bm  C    G
I'm so movin' on yeah yeah
          Em         A         D
Thanks to you now I get what I want
C (palm mute)
Since you been gone


Palm mute G. End on G
Comments