Ted Leo - High Party Chords & Tabs

 

High Party Chords & Tabs

Ted Leo Chords & Tabs

Version: 1 Type: Tab 0 ratings
1 star 2 stars 3 stars 4 stars 5 stars
comments

High Party Tab

"The High Party" by Ted Leo and The Pharmacists

This intro is played pretty fast and on the first slide is played fast so you don't
really hear the first note. This is an awsome song so enjoy.

e---------10----12---10----10----| 
b1/12-12----12---------12-------|
g--------------------------------|  x2
d--------------------------------|
a--------------------------------|
E--------------------------------|

e--------10----12---10----10-----|
b11--11----11---------11--------|
g--------------------------------| x2
d--------------------------------|
a--------------------------------|
E--------------------------------|

e--------------10----------------------------10------------|
b-------13--10----13--10--13--10--10--13--10----13--10--13-|
g-10--10---------------------------------------------------|  x2
d----------------------------------------------------------| 
a----------------------------------------------------------|
E----------------------------------------------------------|
[ Tab from: http://www.guitartabs.cc/tabs/t/ted_leo/high_party_tab.html ]
e--------13----15--13------13-|
b15--15----15---------15-----|
g-----------------------------|  x2
d-----------------------------|
a-----------------------------|
E-----------------------------|

e--------13----15--13------13-|
b14--14----14---------14-----|
g-----------------------------|  x2
d-----------------------------|
a-----------------------------|
E-----------------------------|

e--------------10----------------------------10------------|
b-------13--10----13--10--13--10--10--13--10----13--10--13-|
g-10--10---------------------------------------------------|  
d----------------------------------------------------------| 
a----------------------------------------------------------|
E----------------------------------------------------------|

e--------------10-------------------------------------| 
b-------13--10----13--10--13-15-15-15-15-15-15-15-15-|
g-10--10----------------------------------------------| 
d-----------------------------------------------------|  
a-----------------------------------------------------|
E-----------------------------------------------------|
Comments