Ted Leo - Counting Down The Hours Chords & Tabs

 

Counting Down The Hours Chords & Tabs

Ted Leo Chords & Tabs

Version: 1 Type: Bass Tab 0 ratings
1 star 2 stars 3 stars 4 stars 5 stars
comments

Counting Down The Hours Bass Tab

Tabbed By : Chris gillespie
e-mail: jirolico@gmail.com


Bass comes in at around :50
Cool sounding intro, long slide and swing the notes
G|7/12-12-9------------------------------------------------------------------|
D|----------12-9-------------------------------------------------------------|
A|---------------------------------------------------------------------------|
E|---------------------------------------------------------------------------|
[ Tab from: http://www.guitartabs.cc/tabs/t/ted_leo/counting_down_the_hours_btab.html ]
Main riff
Listen to rhythm, again swing the notes.
G|----------------------------------------------------------------------------|
D|2-2-2-2-2-2-2-2-------------------------------------------------------------|
A----------------5-5-5-5-5-5-5-5-5-3-3-3-3-3-3-3-3----------------------------|
E|-------------------------------------------------5-5-5-5-3-3-3-3------------|

There are some variations off the main riff throughout the song, but it isn't too hard to figure out.
Comments