Tecumseh - Re-play Chords & Tabs

 

Re-play Chords & Tabs

Tecumseh Chords & Tabs

Version: 1 Type: Tab 0 ratings
1 star 2 stars 3 stars 4 stars 5 stars
comments

Re-play Tab

Tecumseh.
Tabbed by Matthew Tickner, Mattick@another.com.
  
#----------------------------------PLEASE NOTE--------------------------------#
#This file is the author's own work and represents their interpretation of the#
#song. You may only use this file for private study, scholarship, or research.#
#-----------------------------------------------------------------------------#

Author/Artist: Tecumseh
Title: Re-Play
Album: The Last Warriors
Transcribed by: Mattick
Email: Mattick@cymruambyth.com

Bysk is 16
Mattick is also 16

It is only the 3ird time we have ever played 2getha
and we have come up with this.

Please comment coz we need to know if we should
try and get sum gigs.
[ Tab from: http://www.guitartabs.cc/tabs/t/tecumseh/re_play_tab.html ]
-||-----------------------------------|--|------------------------------------
-||-----------------------------------|--|------------------------------------
-||-----------------------------------|--|------------------------------------
-||-----0-------0---------0-------0---|x2|------------------------------------
-||---5---5---5--------5----5---5-----|--|--5-9-------------------------------
-||-3-------3-----0--3--------3-----0-|--|--3-7-------------------------------
 INTRO: Play At A Steady Pace. Play The Last Two Power Chords Fast.           

-||-33333333333-000000000000000000000000-333333333333-000-000-333333000-------
-||-00000000000-000000000000000000000000-000000000000-000-000-000000000-------
-||-00000000000-002222000000002222000000-000000000000-001-000-000000020-------
-||-00000000000-220000220000220000220000-000000000000-222-112-000000202-------
-||-22222222222-222222222222222222222222-222222222222-222-222-222222222-------
-||-33333333333-000000003333000000003333-333333333333-000-220-333333000-------
 VERSE: Play This Verse Much Faster Than Chorus.Use Wah-Wah Bar On Last Note. 

-||------------------|--------------------------|-----------------------------
-||------------------|--------------------------|-----------------------------
-||------------------|--------------------------|-----------------------------
-||-5/7--5/9--5577997|557799775577997-557799745-|-----------------------------
-||-5/7--5/9--5577997|557799775577997-557799745-|--x2-------------------------
-||-3/5--3/7--3355775|335577553355775-335577523-|-----------------------------
 CHORUS: There Are 2 Big Fill-Ins At The Vertical lines. Play Quite Fast      

 
:: Ultimate Guitar Archive :: 
http://www.ultimate-guitar.com 

Comments