Teck Wei - Memories Damour Chords & Tabs

 

Memories Damour Chords & Tabs

Teck Wei Chords & Tabs

Version: 1 Type: Tab 0 ratings
1 star 2 stars 3 stars 4 stars 5 stars
comments

Memories Damour Tab

E||-------------------------0-||---0-2-2-3-3-2-2-0-0---------------|
B||---------------------------||---------------------0-0---------3-| *= pause for a second.
G||--------0-----0-----0------||*----------0-------0-----0-0-------|
D||---------------------------||*----------------------------2-2---|
A||-----2-----2-----2-----2---||-------2-------2-------2-------2---|
E||--0------------------------||---0-------------------------------|



-----------------------|------------0-0-2-2-----------|
--3-1-1-0-1-3-1--------|----1-1-3-3---------3-3-----1-|
----------2------2-----|------2-------2---------2-2---|
------2-------2-----2--|--0-------0-----0-------------|
--0--------------------|------------------------------|
-----------------------|--------------------------2---|



-----------------------|----------------------------------------------| Bass Guitar> |---------------
--1-0-0---0-1-0----12--|--0------0---0------0---0------1-0-1------1-0-|              |---------------
--------2-----2--------|-------0---2------0---2------0----------0-----|              |---------------
----------0---1--------|-----2---2------2---2------2----------2-------|              |--2-----0-2-0-2
--------------2--------|-----2----------2----------2-------0----------|              |----0-3--------
--3--------------------|--0----------0----------0---------------------|              |---------------



------------------0---0----------|
--1--1-0-1-2-3--3---3---0--------|
---------2------2----------0-----|
-----2-------0------4---------4--|
--0------------------------------|
------------------------3-----2--|

Make this part a fast one :>

--7------7----7------7----7------8-7-8-------8----|
-------8---10------8---10------8-----------8---12-|
-----9---9-------9---9-------9---9------9----9----|
-----9-----------9-----------9----------10--------|
--------------------------------------------------|
--0-----------0-----------0-----------------------|



--8--8-----8-9-10--10-12-10-12-7--------|
--------12---------------10-------------|
-----------9-------11-------------0-----|
-----10--------0---------------------4--|
--0-------------------------------------|
-------------------------------3-----2--|



--3-----------------2-0-2-----------------0---|
-------0-0-1-1-------------------0-0--------3-|
------------------2----------2-2------0-0-----|
---------2------2-------0---------------------|
-----2-------0--------------------------------|
--0------------------------2-------3------2---|



--0------------------------------|
------------------------0--------|
-------0-0-2-2------4-2----------|
------------------4-----------1--|
-----2----------4-------2--4-----|
--0----------2-------------------|



--3----3-3-5-5----3-2----------0------------|
----------------------5-3----3---3-0--------|
---------0----------2------2----------0-----|
----------------2-------0------4---------4--|
-----2-------0------------------------------|
--0--------------------------------3-----2--|



--3----3-3-5-5----3-2----------0---0--------|
----------------------5-3----3---3-------0--|
---------0----------2------2-------------0--|
----------------2-------0------4---------2--|
-----2-------0------------------------2-----|
--0--------------------------------0--------|



--3----3-3-5-5----3-2----------0------------|
----------------------5-3----3---3-0--------|
---------0----------2------2----------0-----|
----------------2-------0------4---------4--|
-----2-------0------------------------------|
--0--------------------------------3-----2--|


[ Tab from: http://www.guitartabs.cc/tabs/t/teck_wei/memories_damour_tab.html ]
--3----3-3-5-5----3-2----------0---|--0-----------------|
----------------------5-3----3---3-|--------------------|
---------0----------2------2-------|-----------------0--|
----------------2-------0------4---|--------2-----2-----|
-----2-------0---------------------|-----2-----2--------|
--0--------------------------------|--0-----------------|



----------------------------------------------|
--0------0---0------0---0------1-0-1------1-0-|
-------0---2------0---2------0----------0-----|
-----2---2------2---2------2----------2-------|
-----2----------2----------2-------0----------|
--0----------0----------0---------------------|



------------------0---0----------|
--1--1-0-1-2-3--3---3---0--------|
---------2------2----------0-----|
-----2-------0------4---------4--|
--0------------------------------|
------------------------3-----2--|



--7------7----7------7----7------8-7-8-------8----|
-------8---10------8---10------8-----------8---12-|
-----9---9-------9---9-------9---9------9----9----|
-----9-----------9-----------9----------10--------|
--------------------------------------------------|
--0-----------0-----------0-----------------------|



--8--8-----8-9-10--10-12-10-12-7--------|
--------12---------------10-------------|
-----------9-------11-------------0-----|
-----10--------0---------------------4--|
--0-------------------------------------|
-------------------------------3-----2--|



--3----3-3-5-5----3-2----------0------------|
----------------------5-3----3---3-0--------|
---------0----------2------2----------0-----|
----------------2-------0------4---------4--|
-----2-------0------------------------------|
--0--------------------------------3-----2--|



--3----3-3-5-5----3-2----------0---0--------|
----------------------5-3----3---3-------0--|
---------0----------2------2-------------0--|
----------------2-------0------4---------2--|
-----2-------0------------------------2-----|
--0--------------------------------0--------|



--3----3-3-5-5----3-2----------0------------|
----------------------5-3----3---3-0--------|
---------0----------2------2----------0-----|
----------------2-------0------4---------4--|
-----2-------0------------------------------|
--0--------------------------------3-----2--|



--3----3-3-5-5----3-2----------0---|--0----------------0--||
----------------------5-3----3---3-|--0-------------------||
---------0----------2------2-------|--0-----------0------*||   
----------------2-------0------4---|--------0------------*||
-----2-------0---------------------|-----2-----2-----2----||
--0--------------------------------|--0-------------------||



--3----3-3-5-5----3-2----------0---0--------|
----------------------5-3----3---3-------0--|
---------0----------2------2-------------0--|
----------------2-------0------4---------2--|
-----2-------0------------------------2-----|
--0--------------------------------0--------|



--3----3-3-5-5----3-2----------0------------|
----------------------5-3----3---3-0--------|
---------0----------2------2----------0-----|
----------------2-------0------4---------4--|
-----2-------0------------------------------|
--0--------------------------------3-----2--|
                                                        harmonics                                                       

                                                        ^^
--3----3-3-5-5----3-2----------0---|--0--------------0--12------||
----------------------5-3----3---3-|--------------0-----12------||
---------0----------2------2-------|-----------0--------12------||
----------------2-------0------4---|--------2-------------------||
-----2-------0---------------------|-----2----------------------||
--0--------------------------------|--0-------------------------||
Comments