Tears Of Blood - Life Won't Wait Chords & Tabs

 

Life Won't Wait Chords & Tabs

Tears Of Blood Chords & Tabs

Version: 1 Type: Tab 0 ratings
1 star 2 stars 3 stars 4 stars 5 stars
comments

Life Won't Wait Tab

   
##################################################################################
# This file is the author's own work and represents their interpretation of the  #
# song. You may only use this file for private study, scholarship, or research.  #
##################################################################################

1/8/00 Copyright Music and Lyrics by Mark O'Dwyer

                                        Life Won't Wait
                                        Tears of Blood


Intro:
e -------------------------------|---------------------| R
B -------------------------------|---------------------| E
G ------0-----------0---------  -|-----0---------0-----| P
D ----2---2-------2---2------x2--|---0---0-----0---0---| E
A --2-------2-0-3-------3-0---  -|-2-------2-0-------0-| A
E -------------------------------|---------------------| T
[ Tab from: http://www.guitartabs.cc/tabs/t/tears_of_blood/life_wont_wait_tab.html ]
e -----------------------|
B ---------------0-------|
G -------------0-----  --|
D --2-2-2--2-2-------x2--|
A --2-2-2--3-3-------  --|
E -----------------------|
 
Verses:
e ---------------------------------|
B ---------------------------------|
G ---------------------------------|
D --2-2-2-2---2-2-2----------------|
A --2-2-2-0---3-3-3----------------|
E ---------------------------------|
      
Pre-Chorus:
(not in the third verse) 
   Em        C6   
e ---------------------------------|
B --0-0-0-0---0-0-0----------------|
G --0-0-0-0---0-0-0----------------|
D --2-2-2-2---2-2-2----------------|
A --2-2-2-2---3-3-3----------------|
E --0-0-0-0---0-0-0----------------|



=================================
Chorus: E C G D  Dsus4 Dm E G G D 
================================= 


******************************************************************************************************************

******************************************************************************************************************


                                       As the Blood Spills
                                        Tears of Blood
I'll call this part Q  |
e -------------|       |
B -------------|       |
G -------------|       |
D -------------|       | 
A -------------|       | 
E --2---3------|       |   Intro:  D   Am   C   G  x2,  Q
Comments