Team Sleep - Our Ride To The Rectory Chords & Tabs

 

Our Ride To The Rectory Chords & Tabs

Team Sleep Chords & Tabs

Version: 1 Type: Tab 0 ratings
1 star 2 stars 3 stars 4 stars 5 stars
comments

Our Ride To The Rectory Tab

   
-----------------------------------------------------------------
Our Ride to the Rectory - Team Sleep
-----------------------------------------------------------------
Tabbed by:Cross
Email:xcrossx1 @ yahoo.com
Date:4/25/05
Tuning:EADGBe

 Verse
[ Tab from: http://www.guitartabs.cc/tabs/t/team_sleep/our_ride_to_the_rectory_tab.html ]
e|-0-----------------------------0-------------------------------|
B|-0-----------------------------0-------------------------------|
G|-8-----------------------------4-------------------------------|
D|-9-----------------------------5-------------------------------|
A|-9-----------------------------5-------------------------------|
E|-7-----------------------------3-------------------------------|
 Verse  Guitar 2                    
e|-----------------------------------------------------|---------|
B|-----------------------------------------------------|---------|
G|----11--11-------------------------------------------|--7-6----|
D|-9----------11---11--12-11\7-7-7h9---5-4--5----------|---------|
A|-----------------------------------------------------|---------|
E|-----------------------------------------------------|---------|
                                                        ^
                               it comes at the end of the verse        


 Chorus
e|-------------------------------0-------------------------------|
B|-4-----5-----------7-----------2-------------------------------|
G|-4-----5-----------7-----------2-------------------------------|
D|-4-----5-----------7-----------2-------------------------------|
A|-2-----3-----------5-----------0-------------------------------|
E|---------------------------------------------------------------|
 Second Chorus   (E is optional, I like the thickness of the 5th)
e|---------------------------------------------------------------|
B|---------------------------------------------------------------|
G|-4----5----7---5---4---2---------------------------------------|
D|-4----5----7---5---4---2---------------------------------------|
A|-2----3----5---3---2---0---------------------------------------|
E|-2----3----5---3---2---0---------------------------------------|





| / slide up
| \ slide down
| h hammer-on
| p pull-off
| ~ vibrato
| + harmonic
| x Mute note
Comments