Team Sleep - Ever Foreign Flag Chords & Tabs

 

Ever Foreign Flag Chords & Tabs

Team Sleep Chords & Tabs

Version: 1 Type: Tab 0 ratings
1 star 2 stars 3 stars 4 stars 5 stars
comments

Ever Foreign Flag Tab

   
-----------------------------------------------------------------
Ever (Foreign Flag) - Team Sleep
-----------------------------------------------------------------
Tabbed by:Cross
Email:xcrossx1 @ yahoo.com
Date:5/3/05
Tuning:EADGBe

Main Guitar
e|---------------------------------------------------------------|
B|---------------------------------------------------------------|
G|-9--------------9-------------6-------------6------------------|
D|---7----7---7-----7---7---7-----6---6---6-----6---6---6--------|
A|------0---0---0-----0---0---0-----0---0---0-----0---0---0------|
E|---------------------------------------------------------------|

Main Chorus
e|---------------------------------------------------------------|
B|---------------------------------------------------------------|
G|-------6-----------------4------------2--2-----2-----1--1--1---|
D|---7-----7---7-------4-----4---4-------------------------------|
A|-5---5-----5---5---2---2-----2---2-0---------------------------|
E|-------------------------------------2--2---2-2--2-2--2---5-5--|
[ Tab from: http://www.guitartabs.cc/tabs/t/team_sleep/ever_foreign_flag_tab.html ]
e|---------------------------------------------------------------|
B|---------------------------------------------------------------|
G|-------6-----------------4-----------------2--------------2----|
D|---7-----7---7-------4-----4---4-------0-----0---0----0-----0--|
A|-5---5-----5---5---2---2-----2---2-0---------------------------|
E|-------------------------------------3---3-----3----3---3-----3|

e|---------------------------------------------------------------|
B|---------------------------------------------------------------|
G|----3-4-3------------------------------------------------------|
D|----------2----------------------------------------------------|
A|---------------------------------------------------------------|
E|-3-2-----------------------------------------------------------|

Verse Second Guitar
e|---------------------------------------------------------------|
B|---------------------------------------------------------------|
G|---------------------------------------------------------------|
D|---------------------------------------------------------------|
A|-4-4-4--5-5--4-4-----------------------------------------------|
E|---------------------------------------------------------------|

e|---------------------------------------------------------------|
B|---------------------------------------------------------------|
G|---------------------------------------------------------------|
D|---------------------------------------------------------------|
A|-0---7--7-7-9-9---4-----------4-4-4--5-5--4-4------------------|
E|---------------------------------------------------------------|

There you go,  a proper Ever tab.  Listen to the song for timing
and structure.

| / slide up
| \ slide down
| h hammer-on
| p pull-off
| ~ vibrato
| + harmonic
| x Mute note
Comments