Team Sleep - Elizabeth Chords & Tabs

 

Elizabeth Chords & Tabs

Team Sleep Chords & Tabs

Version: 1 Type: Tab 0 ratings
1 star 2 stars 3 stars 4 stars 5 stars
comments

Elizabeth Tab

   
-----------------------------------------------------------------
Elizabeth - Team Sleep
-----------------------------------------------------------------
Tabbed by:Cross
Email:xcrossx1 @ yahoo.com
Date:4/25/05
Tuning:EADGBe

  Verse
e|-0-------------------------7-----------------------------------|
B|-0-------------------------7-----------------------------------|
G|-4-------------------------8-----------------------------------|
D|-5-------------------------9-----------------------------------|
A|-5-------------------------9-----------------------------------|
E|-3-------------------------7-----------------------------------|
 Verse guitar 2
e|---------------------------------------------------------------|
B|-8-7---8-7-----------------------------------------------------|
G|-----7------7---7/9--------------------------------------------|
D|-5-4---5-4----------9------------------------------------------|
A|-----5------5---5/7--------------------------------------------|
E|--------------------7------------------------------------------|
  Verse guitar 3
e|---------------------------------------------------------------|
B|-7-----7------5----5-------------------------------------------|
G|---7-----7------6----6-----------------------------------------|
D|---------------------------------------------------------------|
A|---------------------------------------------------------------|
E|---------------------------------------------------------------|

Chorus 
e|--------2-/-/---------2----------------------------------------|
B|--------0-/-/---------0----------------------------------------|
G|-5-5-5--0-/-/--5-5-5--0----------------------------------------|
D|-5-5-5--2-/-/--5-5-5--2----------------------------------------|
A|-3-3-3--2-/-/--3-3-3--2----------------------------------------|
E|--------0-/-/---------0----------------------------------------|
            ^
            Strum
[ Tab from: http://www.guitartabs.cc/tabs/t/team_sleep/elizabeth_tab.html ]
  Verse 2
e|---------------------------------------------------------------|
B|---------------------------------------------------------------|
G|-4------6------------------------------------------------------|
D|-4------4------------------------------------------------------|
A|-2------2------------------------------------------------------|
E|---------------------------------------------------------------|

Guitar 2  Verse 2
e|---------------------------------------------------------------|
B|---------------------------------------------------------------|
G|---------------------------------------------------------------|
D|---------------------------------------------------------------|
A|------2--5---2--5--4--2---2--5--2-5--2-2-2-2-5-----------------|
E|-3--5----------------------------------------------------------|
  
e|---------------------------------------------------------------|
B|---------------------------------------------------------------|
G|---------------------------------------------------------------|
D|-----------------------------1----1----------1-----------------|
A|------2--5---2--5--4--2---2-----2----2-2-2-2-------------------|
E|-3--5----------------------------------------------------------|

e|-------------2-------------2-----------------------------------|
B|------------0-------------0------------------------------------|
G|-5-5-5-----0---5-5-5-----0-------------------------------------|
D|-5-5-5----2----5-5-5----2--------------------------------------|
A|-3-3-3---2-----3-3-3---2---------------------------------------|
E|--------0-------------0----------------------------------------|

  1:40
e|---------------------------------------------------------------|
B|---------------------------------------------------------------|
G|-7-6--2--4/9---9/11--------------------------------------------|
D|---------------------------------------------------------------|
A|---------------------------------------------------------------|
E|---------------------------------------------------------------|


This song is full of acoustics,  if it's missing anything
email me.

| / slide up
| \ slide down
| h hammer-on
| p pull-off
| ~ vibrato
| + harmonic
| x Mute note
Comments