Team Sleep - Ataraxia Chords & Tabs

 

Ataraxia Chords & Tabs

Team Sleep Chords & Tabs

Version: 1 Type: Tab 0 ratings
1 star 2 stars 3 stars 4 stars 5 stars
comments

Ataraxia Tab

   
-----------------------------------------------------------------
Ataraxia - Team Sleep
-----------------------------------------------------------------
Tabbed by:Cross
Email:xcrossx1 @ yahoo.com

Tuning:EADGBe


Verse
e|---------------------------------------------------------------|
B|-----8----11-9-8-----------------------------------------------|
G|---8---8---------8---------------------------------------------|
D|-8-------------------------------------------------------------|
A|---------------------------------------------------------------|
E|---------------------------------------------------------------|
[ Tab from: http://www.guitartabs.cc/tabs/t/team_sleep/ataraxia_tab.html ]
Pre-chorus
e|---------------------------------------------------------------|
B|---------------------------------------------------------------|
G|---------------------------------------------------------------|
D|-----5--8-6-5-6-5------5-8-6-5---6--5---3--5-------------------|
A|---6-----------------6-----------------------------------------|
E|-6-----------------6-------------------------------------------|

Chorus
e|---------------------------------------------------------------|
B|---------------------------------------------------------------|
G|-8---4--3-----8---4--------------------------------------------|
D|-8---4--3-----8---4--6-----------------------------------------|
A|-6---2--1-----6---2--6-----------------------------------------|
E|---------------------4-----------------------------------------|

or this (whatever is easier for you, they are both the same)
Chorus
e|---------------------------------------------------------------|
B|---------------------------------------------------------------|
G|-8------------8------------------------------------------------|
D|-8---9--8-----8---9--6-----------------------------------------|
A|-6---9--8-----6---9--6-----------------------------------------|
E|-----7--6---------7--4-----------------------------------------|


These are the notes and chords,  strum as needed.

| / slide up
| \ slide down
| h hammer-on
| p pull-off
| ~ vibrato
| + harmonic
| x Mute note
Comments