Tea Party - Turn The Lamp Down Low Chords & Tabs

 

Turn The Lamp Down Low Chords & Tabs

Tea Party Chords & Tabs

Version: 5 Type: Tab 0 ratings
1 star 2 stars 3 stars 4 stars 5 stars
comments

Turn The Lamp Down Low Tab

   
The Tea Party - Turn The Lamp Down Low
as tabbed by Marty - mbignell81@hotmail.com


^ = Hammer
b = bend


Main riff

E-I--------------------------------------|I
B-I--------------------------------------|I
G-I-----1--------------------------------|I
D-I---------0--2--------0----------------|I
A-I----------------0^2-------------0-----|I
E-I--0---------------------0---3---------|I

turn the lamp down low....baby shelter me....

E-------------------------------------------------------|
B-------------------------------------------------------|
G------1-----------------------------2------------------|
D----------0--2-------0--------------2------------5-----|
A-----------------0^2----------------0------------5-----|
E---0 -------------------0---3---4----------------3-----|

                          turn the lamp down low........ baby please don't go....

Bridge


heavy distortion...
[ Tab from: http://www.guitartabs.cc/tabs/t/tea_party/turn_the_lamp_down_low_tab_ver_5.html ]
E--------------------------------------------------------------------------------|
B--------------------------------------------------------------------------------|
G----7--7--7---5-----------------------------7--7--7---5-------------------------|
D------------------5b-5-----------------------------------5b--5------------------|
A----------------------------5---7---2--------------------------------5---7---2--|
E------------------------0---3---5---0----------------------------0---3---5---0--|


E----------------------------------------------------------------|
B----------------------------------------------------------------|
G----7--7--7--5--------------------------------------------------|
D-----------------5b--5------------------------------------------|
A--------------------------5---7---5---2---5---2---5---7---2-----|
E------------------------0-3---5---3---0---3---0---3---5---0-----|


That's pretty much all the notation you need. Listen to the song to get the timing
right, and i'm sure you can figure out where the pieces go.
Comments