Tea Party - The Bazaar Chords & Tabs

 

The Bazaar Chords & Tabs

Tea Party Chords & Tabs

Version: 2 Type: Bass Tab 0 ratings
1 star 2 stars 3 stars 4 stars 5 stars
comments

The Bazaar Bass Tab

song: the bazaar
artist: the tea party
cd: the edges of twilight
tabbed out by rachel
dropped D tuning

this song is a little hard, but once you get the 
fingering down youll have no trouble. turn the 
volume up to 11, and carry on.

intro  
iI
----------------
----------------
----------------
--6---3--5-0

iII 
-------------------------------------------
-------------------------------------------
-------------------------------------------
--6--5-3-5-6--5-3-5-6--5-6-5-6

chorus
------------------------------------------------------------------------
--5-5-5-5-5-7-3-3-5-2-0---------------0---------------------
-----------------------------------3-3-3-1-3---1-1-1-1-1-0-- 
----------------------------------------------------------------------5

variation
--------------------------------------------------------------    
-----------------------------0--3-3-3-3-3-5-2-2-3-0
--3-3-3-3-3-3-3-1-3----------------------------------
--------------------------------------------------------------    
[ Tab from: http://www.guitartabs.cc/tabs/t/tea_party/the_bazaar_btab_ver_2.html ]
------------------------------------------------------------------------
-----------------------------0------------------0---------------------
--3-3-3-3-3-3-3-1-3---3-3-3-3-1-3----1-1-1-1-1-0---
-----------------------------------------------------------------------5

verse 
vI
-----------------------------------------------------
-----------------------------------------------------
------------------------------2-2-2-2------------
--5-5-5-5-5-5-3-6-5 -------------6-6-5-5
vII
------------------------------------------------
--0-0-0-0-0-1---0------------------------
-------------------3----3-3-3-3-3-3-2-2
------------------------------------------------
vIII
---------------------------------------------------
---------------------------------------------------
--------------------3-2-2-----------------------
--5-5-5-5-5-5---------5-5-5-5-5-3-6-5

song layout

this song is slightly complex, but if your really
intelligent and have the cd, you can probably figure
it out yourself. if your a dimwit like me, use this.

iI X 3
iII X 1
chorus X 2
variation X 1
vI X 2
vII X 1
vIII X 1
chorus X 2
vI X 2
vII X 1
vIII X 1
chorus X 2
variation X 1
iI X 7
iII X 1
chorus X 2
vI X 2
vII X 1
vIII X 1
chorus X 2
variation X 1 and double up on the last bar or so

thats it. happy bassing. 

questions??comments??hatemail??lovemail??
email me pez_dispenser66@hotmail.com
Comments