Tea Party - The Badger Chords & Tabs

 

The Badger Chords & Tabs

Tea Party Chords & Tabs

Version: 1 Type: Tab 1 rating
1 star 2 stars 3 stars 4 stars 5 stars
comments

The Badger Tab

'The Badger' by The Tea Party
from the album 'The Edges Of Twilight'
transcribed by Sean Kijurina.


D----------------------------------12--
B---------10------------10-------------
G--9--11------11--9--7------9--11------ x3
D--------------------------------------
G--------------------------------------
D--------------------------------------


D----10p9p7-----5p4p0----------0------------------0----7---12--
B--------------------------------------------------------------
G-0-----------------------0h2----------------------------------
D------------0-----------------------2h4p2p0------0----0----0--
G----------------------0---------------------6-----------------
D---------------------------------0------------7--0----7---12--


D--2--2h4p2p0-----0------------------------2--2h4p2p0-----0-------------------
B--------------3-----3---------10----------------------3-----3---------10--8--
G-----------------------9--11------11---------------------------9--11------0-- x4
D--0-----------0---------------------------0-----------0----------------------
G-----------------------------------------------------------------------------
D-----------------------------------------------------------------------------


D--5---------------------------------------5----------------------------------------
B-----0--3--3/5h7--5--3-----------------------0--3--3/5h7--5--3---------------------
G--0---------------------2h4--2--0---------0---------------------2h4--2--0----------
D-----------0----------------------/4---------------0----------------------/4--2p0--
G------------------------0---------------------------------------0------------------
D-----------------------------------0---------------------------------------0-------


D--5-----------------------------------
B-----0--3--3/5h7--5--3----------------
G--0---------------------2h4--2--0-----
D-----------0----------------------/4--
G------------------------0-------------
D-----------------------------------0--


D----------------------------------------------------------------------------------
B--1p0----------------------------------------1p0----------------------------------
G--0----2--2h4--2-----------------------------0----2--2h4--2-----------------------
D----------0----------------0-------0-----------------0-----------------0----------
G--------------------0h2h4-----6/7-------------------------------0h2h4-----/12p11--
D-----------------0--------------------7----------------------0--------------------


D----------------------------0---------0-----------------------------------
B--1p0----------------------------------------1p0--------------------------
G--0----2--2h4--2-----6^(7)-----6^(7)---------0----2-----------------------
D----------0------------------------------------------2h4--2--4--4h5p0-----
G-----------------------------------------------------0-------0---------2--
D------------------0-------------------------------------------------------


D--2--2h4p2p0-----0------------------------2--2h4p2p0-----0-------------------
B--------------3-----3---------10----------------------3-----3---------10--8--
G-----------------------9--11------11---------------------------9--11------0-- x2
D--0-----------0---------------------------0-----------0----------------------
G-----------------------------------------------------------------------------
D-----------------------------------------------------------------------------


D--5---------------------------------------5----------------------------------------
B-----0--3--3/5h7--5--3-----------------------0--3--3/5h7--5--3---------------------
G--0---------------------2h4--2--0---------0---------------------2h4--2--0----------
D-----------0----------------------/4---------------0----------------------/4--2p0--
G------------------------0---------------------------------------0------------------
D-----------------------------------0---------------------------------------0-------


D--5-----------------------------------
B-----0--3--3/5h7--5--3----------------
G--0---------------------2h4--2--0-----
D-----------0----------------------/4--
G------------------------0-------------
D-----------------------------------0--


D----------------------------------------------------------------------------------
B--1p0----------------------------------------1p0----------------------------------
G--0----2--2h4--2-----------------------------0----2--2h4--2-----------------------
D----------0----------------0-------0-----------------0-----------------0----------
G--------------------0h2h4-----6/7-------------------------------0h2h4-----/12p11--
D-----------------0--------------------7----------------------0--------------------


D----------------------------0---------0-----------------------------------
B--1p0----------------------------------------1p0--------------------------
G--0----2--2h4--2-----6^(7)-----6^(7)---------0----2-----------------------
D----------0------------------------------------------2h4--2--4--4h5p0-----
G-----------------------------------------------------0-------0---------2--
D------------------0-------------------------------------------------------

[ Tab from: http://www.guitartabs.cc/tabs/t/tea_party/the_badger_tab.html ]
D-------------0--------------------0--5--7--/10--7--5--5h7p5--0-----
B----------3-----3-----------4-----3--5--7--/10--7--5--5h7p5--3-----
G----0--3--------------0--3----------------------------------------- x2
D-1-----------------1--------------0--------------------------0--0--
G-------------------------------------------------------------------
D-------------------------------0-----------------------------------


D-------------0------------------------10p9p7-----5p4p0--------0--------------
B----------3-----3-----------4------------------------------------------------
G----0--3--------------0--3---------0-----------------------2-----------------
D-1-----------------1--------------------------0---------------------2h4p2p0--
G--------------------------------------------------------0--------------------
D-----------------------------------------------------------------0-----------


D--2--2h4p2p0-----0------------------------2--2h4p2p0-----0-------------------
B--------------3-----3---------10----------------------3-----3---------10--8--
G-----------------------9--11------11---------------------------9--11------0-- x2
D--0-----------0---------------------------0-----------0----------------------
G-----------------------------------------------------------------------------
D-----------------------------------------------------------------------------


D--5---------------------------------------5----------------------------------------
B-----0--3--3/5h7--5--3-----------------------0--3--3/5h7--5--3---------------------
G--0---------------------2h4--2--0---------0---------------------2h4--2--0----------
D-----------0----------------------/4---------------0----------------------/4--2p0--
G------------------------0---------------------------------------0------------------
D-----------------------------------0---------------------------------------0-------


D--5-----------------------------------
B-----0--3--3/5h7--5--3----------------
G--0---------------------2h4--2--0-----
D-----------0----------------------/4--
G------------------------0-------------
D-----------------------------------0--


D----------------------------------------------------------------------------------
B--1p0----------------------------------------1p0----------------------------------
G--0----2--2h4--2-----------------------------0----2--2h4--2-----------------------
D----------0----------------0-------0-----------------0-----------------0----------
G--------------------0h2h4-----6/7-------------------------------0h2h4-----/12p11--
D-----------------0--------------------7----------------------0--------------------


D----------------------------0---------0-----------------------------------
B--1p0----------------------------------------1p0--------------------------
G--0----2--2h4--2-----6^(7)-----6^(7)---------0----2-----------------------
D----------0------------------------------------------2h4--2--4--4h5p0-----
G-----------------------------------------------------0-------0---------2--
D------------------0-------------------------------------------------------


D---------------------------------------------------------------11--12--11-----------
B-------------------------------------3--3h5p3--2--5--3--2--/8--------------8h10--7--
G---------------------------------------------------------------------------9-----7--
D------------------4--2--2--2h4p2--0-------------------------------------------------
G------------2--0--------------------------------------------------------------------
D--0--0h2h4--------------------------------------------------------------------------


D---------12-----10p9-----8p7--7------7--7h8p7--5--5h7p5--3--3h5p3--2--
B------------------------------7------7---------5---------3---------2--
G--9--12------9--------7-----------------------------------------------
D----------------------------------------------------------------------
G----------------------------------------------------------------------
D----------------------------------------------------------------------


D-----0--------0--------0--------0-----
B--------------------------------------
G--------3--------3--------3--------3--
D--------------------------------------
G--------------------------------------
D--5--------3--------2--------1--------


D--------2--2h3p2--0-----0-------0--2--
B-----3---------------------2/3--------
G--------------------------------------
D--------------------------------------
G--2------------------2----------------
D--------------------------------------


D--2--2h4p2p0-----------
B--------------3--------
G-----------------------
D--0-----------0-----0--
G-----------------------
D-----------------0-----


D----------------------------------12--
B---------10------------10-------------
G--9--11------11--9--7------9--11------ x3
D--------------------------------------
G--------------------------------------
D--------------------------------------


D----------------------------------
B---------10------------10-----10--
G--9--11------11--9--7------9------ 
D------------------------------12--
G----------------------------------
D----------------------------------
Comments