Tea Party - Silence Chords & Tabs

 

Silence Chords & Tabs

Tea Party Chords & Tabs

Version: 2 Type: Tab 0 ratings
1 star 2 stars 3 stars 4 stars 5 stars
comments

Silence Tab

   
Silence - Tea Party

Open C tuning (again):
e tuned down to d
B tuned up to C
G left the same
D tuned down to C
A tuned down to G
E tuned down to C

There are a lot of instruments in on this, so I'm VERY likely wrong.  This
is just MY interpretation.  The timing is probably wrong (I'm not that good).
It's just four dashes (-) for every quarter note.  This is just a guess, but
I think it's in 4/4 timing (please correct me).

INTRO:
             (4 times)
d|-------------------|
C|-------------------|
G|o-3-0-0-3-0-0---0-o|
C|o-0-0-0-0-0-0-5-0-o|
G|--3-0-0-3-0-0-5-0--|
C|--------------5----|

VERSE:
 (Strum these)
d|------------------|-----------------|-----------------|------------------|
C|---4---5---8---7--|--10--8---7---5--|--4---5---8---7--|--4---5---2-------|
G|o--0---0---0---0--|--0---0---0---0--|--0---0---0---0--|--0---0---0------o|
C|o--4---5---8---7--|--10--8---7---5--|--4---5---8---7--|--4---5---2------o|
G|------------------|-----------------|-----------------|------------------|
C|------------------|-----------------|-----------------|------------------|
    Si-lent spirit   walks before me   with her beauty and with her eyes

    Heaven help me  I feel I'm fading  I should rest here for a  while

(INTRO riff again)

VERSE riff over
    
    In the dreamtime I'm awakened      as  my  senses  sieze the night
[ Tab from: http://www.guitartabs.cc/tabs/t/tea_party/silence_tab_ver_2.html ]
    Heaven help me  I'm foresaken      I should rest here for a  while

BRIDGE:
(For the beginning, just improvise by playing assorted notes on the B (C)
string and the two lower ones open [like the verse], but remember to keep
them in scale-just fool around with it).

d|---14--14--14--15-|-14-----12-10-8----7----5---|
C|---0---0---0---0--|-0------0--0--0----0----0---|
G|o--0---0---0---0--|-0------0--0--0----0----0---|
C|o-(0)-(0)-(0)-(0)-|(0)----(0)(0)(0)--(0)--(0)--|
G|------------------|----------------------------|
C|------------------|----------------------------|
     Lie in the bed you've made o- phe- li - a

d|---14--14--14--15-|-14-14---12--10----14--12---|
C|---0---0---0---0--|-0--0----0---0-----0---0----|
G|---0---0---0---0--|-0--0----0---0-----0---0---o|
C|--(0)-(0)-(0)-(0)-|(0)(0)--(0)-(0)---(0)-(0)--o|
G|------------------|----------------------------|
C|------------------|----------------------------|
   Dry are the lips that lost the taste of love

   Drown in the waters that would give you life
   Cry as this lamentation thrusts its knife

            (8 times)
d|--2-----4-----5---|
C|--0-----0-----0---|
G|o-0-----0-----0--o|
C|o-0-----0-----0--o|
G|------------------|
C|------------------|
          -
    In    si -  lence
    In    si -  lence
          si -  lence

INTRO riff

VERSE 1 again

INTRO riff twice over
        -
 In silence
 In silence
  silence!


Comments