Tea Party - Heaven Coming Down Chords & Tabs

 

Heaven Coming Down Chords & Tabs

Tea Party Chords & Tabs

Version: 3 Type: Tab 0 ratings
1 star 2 stars 3 stars 4 stars 5 stars
comments

Heaven Coming Down Tab

SONG: Heaven Coming Down
   BAND: The Tea Party
   ALBUM: (i forgot it)
   Transcribed by: Nick "Woggy the Guitar Lizard" Di Claudio
   6 string guitar standard tuning.

   Chorus
[ Tab from: http://www.guitartabs.cc/tabs/t/tea_party/heaven_coming_down_tab_ver_3.html ]
   e||---------------|-3-------------|---------------|-----3---3------||
   B||-------5-------|---3---3-------|-------5-------|-------3---3----||
   G||-----0---------|-----2---2-----|-----0---------|----------------||
   D||---4-----4-----|-----------0---|---4-----4-----|---4------------||
   A||-5---------5-0-|---------------|-5---------5-0-|-5-----------0--||
   E||---------------|-------------0-|---------------|----------------||

   Verse
   (NOTE: this isn't played repeatedly throughout the song, every once in a 
   while you will hear it)
   e||----------------||
   B||-------5--------||
   G||-----0-------0--||
   D||---4-------4----||
   A||-5-------5------||
   E||----------------||

   I just heard alot of people wanted this song, you know, like in the request 
   place. So i did it, it's probably far from perfect, but it doesn't bother 
   me.

   Questions and shit? mail me, Woggy, at korn_rules42@hotmail.com
Comments