Tea Party - Heaven Coming Down Chords & Tabs

 

Heaven Coming Down Chords & Tabs

Tea Party Chords & Tabs

Version: 1 Type: Tab 0 ratings
1 star 2 stars 3 stars 4 stars 5 stars
comments

Heaven Coming Down Tab

   
Heaven Coming Down - The Tea Party

Tuning - F# B D F# B D

Intro/Verse/Chorus:
|---|-----------0--------------|-----0--------------------|
|---|-----0--2-----------------|--------2-----0-----------|
|---|.-------------3--1--0--3--|-----------3-----0--1--0--|
|---|.-0-----------------------|--------------------------|
|-2-|--------------------------|--------------------------|
|---|--------------------------|--3-----------------------|

[ Tab from: http://www.guitartabs.cc/tabs/t/tea_party/heaven_coming_down_tab.html ]
|--------------0--------------|-----------0---------------|
|--------0--2-----------------|-----0--2------------------|
|-----------------3--1--0--3--|--1-----------3--1--0--3--.|
|-----------------------------|--------------------------.|
|-----0-----------------------|---------------------------|
|-----------------------------|-(1)-----------------------|

Bridge:
|--------------------------------------------------|
|--------------------------------------------------|
|.----------------0-----------------0-------------.|
|.-------0--2-----------------0-----------0-------.|  x3
|--0--2--------------------------0-----------------|
|-----------------------0--1--------------------3--|

                                                h
|----------------------------------------------[7]--|
|--------------------0--2-----------0--2--3--5------|
|--------------0--3-----------1--3------------------|
|--------0--2---------------------------------------|
|--0--2---------------------------------------------|
|--------------------------1------------------------|
Comments