Tea Party - Grand Bazaar Chords & Tabs

 

Grand Bazaar Chords & Tabs

Tea Party Chords & Tabs

Version: 2 Type: Tab 0 ratings
1 star 2 stars 3 stars 4 stars 5 stars
comments

Grand Bazaar Tab

   
The Grand Bazzar - Tea Party

The Grand Bazzar ACOUSTIC VERSION.
OPEN C TUNING
E Normal
B Tuned up to C
G Normal
D Tuned down to C
A Tuned down to G
E Tuned down to C


INTRO:
E|-0-0-----------------------------|
C|---0-----------------0----0----0-|
G|---5-0-2-3-5-6-5--3b-3-3b-3-3b-3-|
C|---0-----------------0----0----0-|
G|---5-----------------------------|
C|---0-----------------------------|

E|-----0-----------------------------------------------------------------------------------|
C|----0------------------------------------------------------------------------0----0----0-|
G|---5--5-7-5-6-5-7-s-8-7-8-s-b10-\/\/\/\/\/-7-h-8-7-h-8--b-5--5-h-6-5-h-6--3b-0-3b-0-3b-0-|
C|--0--------------------------------------------------------------------------0----0----0-|
G|-5---------------------------------------------------------------------------------------|
C|0----------------------------------------------------------------------------------------|

E|------0--------------------------------------------|
C|-----0---------------------------------0----0----0-|
G|----5-5-3-5-6-5-b-6-5-b-8--5-6-5-6--3b-3-3b-3-3b-3-|
C|---0-----------------------------------0----0----0-|
G|--5------------------------------------------------|
C|-0-------------------------------------------------|

E|-----0----------------------------------------------0-|
C|----0-0------------0-------------------------------0--|
G|---5---b-1-p-0--b-3-------------------------------0---|
C|--0------------------8-7-8-s-10-7-s-5-5-s-3-p-0--0----|
G|-5----------------------------------------------5-----|
C|0----------------------------------------------0------|


Main Riff (chorus)
E|-------------------------------------------------|
C|--7-7-7-7-s-9-5-5-s-7-4-2-0-0--0-p-2-------------|
G|------------------------------3------3-3-s-2-s-0-|
C|--7-7-7-7-s-9-5-5-s-7-4-2-0-0--0-p-2-------------|
G|------------------------------3------3-3-s-2-s-0-|
C|-------------------------------------------------|

E|-------------------------------------------------|
C|--7-7-7-7-s-9-5-5-s-7-4-2-0-0--0-p-2-------------|
G|------------------------------3------3-3-s-2-s-0-|
C|--7-7-7-7-s-9-5-5-s-7-4-2-0-0--0-p-2-------------|
G|------------------------------3------3-3-s-2-s-0-|
C|-------------------------------------------------|

E|-------------------------------------------------|
C|--0-0-0--0-p-2-5-5-5-s-7-7-h-5-2-p-0-------------|
G|-------3-----------------------------------------|
C|--0-0-0--0-p-2-5-5-5-s-7-4-h-5-2-p-0-------------|
G|-------3-----------------------------------------|
C|-------------------------------------------------|

E|--------------------------------------------------|
C|--0-0-0-0-0--0-p-2--------------------------------|
G|-----------3-------3-3-3-3-2-h-3-p-2-p-0----------|
C|--0-0-0-0-0--0-p-2--------------------------------|
G|-----------3-------3-3-3-3-2-h-3-p-2-p-0----------|
C|--------------------------------------------------|


Verse 1
E|--------------------------------------------------------|
C|-7-7-7-7-s-8-5-s-7--10-8-5---7-7-7-7-s-8-5-s-7--10-8-5--|
G|--------------------------------------------------------|
C|-7-7-7-7-s-8-5-s-7--10-8-5---7-7-7-7-s-8-5-s-7--10-8-5--|
G|--------------------------------------------------------|
C|--------------------------------------------------------|
Silence swimming in a pool of dreams
Beneath this depth the forgotten streams
Above the city of the evening star
Behind its walls the grand bazaar

E|----------------------------------------------------------------|
C|--2-2-2-s-3-0-2--0-0-0-----0------------------------------------|
G|-----------------------4-4-----1-1-1-1-s-5-4-4--1-1-1-1-0-0-0-0-|
C|--2-2-2-s-3-0-2--0-0-0-----0------------------------------------|
G|-----------------------4-4-----1-1-1-1-s-5-4-4--1-1-1-1-0-0-0-0-|
C|----------------------------------------------------------------|
As she walks through its endless maze
Cursing those who mistrust her ways
Please my friend no matter what she sees
Tell my lover come back to me

Main Riff (First Half)
E|-------------------------------------------------|
C|--7-7-7-7-s-9-5-5-s-7-4-2-0-0--0-p-2-------------|
G|------------------------------3------3-3-s-2-s-0-|
C|--7-7-7-7-s-9-5-5-s-7-4-2-0-0--0-p-2-------------|
G|------------------------------3------3-3-s-2-s-0-|
C|-------------------------------------------------|

E|-------------------------------------------------|
C|--7-7-7-7-s-9-5-5-s-7-4-2-0-0--0-p-2-------------|
G|------------------------------3------3-3-s-2-s-0-|
C|--7-7-7-7-s-9-5-5-s-7-4-2-0-0--0-p-2-------------|
G|------------------------------3------3-3-s-2-s-0-|
C|-------------------------------------------------|


Verse 2
E|--------------------------------------------------------|
C|-7-7-7-7-s-8-5-s-7--10-8-5---7-7-7-7-s-8-5-s-7--10-8-5--|
G|--------------------------------------------------------|
C|-7-7-7-7-s-8-5-s-7--10-8-5---7-7-7-7-s-8-5-s-7--10-8-5--|
G|--------------------------------------------------------|
C|--------------------------------------------------------|
Doorways spilling out their sombre light
Casting shadows that will raid the night
Along the alleys of her ruling fears
Walk the visions that will cause her tears

E|----------------------------------------------------------------|
C|--2-2-2-s-3-0-2--0-0-0-----0------------------------------------|
G|-----------------------4-4-----1-1-1-1-s-5-4-4--1-1-1-1-0-0-0-0-|
C|--2-2-2-s-3-0-2--0-0-0-----0------------------------------------|
G|-----------------------4-4-----1-1-1-1-s-5-4-4--1-1-1-1-0-0-0-0-|
C|----------------------------------------------------------------|
Lying still as she wills her glance
Through the eyes of a charmers trance
Please my friend no matter what she sees
Tell my lover come back to me

[ Tab from: http://www.guitartabs.cc/tabs/t/tea_party/grand_bazaar_tab_ver_2.html ]
Main Riff (Chorus 1)
E|-------------------------------------------------|
C|--7-7-7-7-s-9-5-5-s-7-4-2-0-0--0-p-2-------------|
G|------------------------------3------3-3-s-2-s-0-|
C|--7-7-7-7-s-9-5-5-s-7-4-2-0-0--0-p-2-------------|
G|------------------------------3------3-3-s-2-s-0-|
C|-------------------------------------------------|

E|-------------------------------------------------|
C|--7-7-7-7-s-9-5-5-s-7-4-2-0-0--0-p-2-------------|
G|------------------------------3------3-3-s-2-s-0-|
C|--7-7-7-7-s-9-5-5-s-7-4-2-0-0--0-p-2-------------|
G|------------------------------3------3-3-s-2-s-0-|
C|-------------------------------------------------|
To Me

E|-------------------------------------------------|
C|--0-0-0--0-p-2-5-5-5-s-7-7-h-5-2-p-0-------------|
G|-------3-----------------------------------------|
C|--0-0-0--0-p-2-5-5-5-s-7-4-h-5-2-p-0-------------|
G|-------3-----------------------------------------|
C|-------------------------------------------------|
To Me
E|--------------------------------------------------|
C|--0-0-0-0-0--0-p-2--------------------------------|
G|-----------3-------3-3-3-3-2-h-3-p-2-p-0----------|
C|--0-0-0-0-0--0-p-2--------------------------------|
G|-----------3-------3-3-3-3-2-h-3-p-2-p-0----------|
C|--------------------------------------------------|
To Me

Bridge
E|------------------------------------|
C|-8-8-5-5-s-7-2-2--8-8-5-5-5-s-7-2-2-|
G|------------------------------------|
C|-8-8-5-5-s-7-2-2--8-8-5-5-5-s-7-2-2-|
G|------------------------------------|
C|------------------------------------|
And on the walls, shadows play
E|------------------------------------|
C|-8-8-5-5-s-7-2-2--8-8-5-5-5-s-7-2-2-|
G|------------------------------------|
C|-8-8-5-5-s-7-2-2--8-8-5-5-5-s-7-2-2-|
G|------------------------------------|
C|------------------------------------|
Twilight souls, anguished ways

E|------------------------------------|
C|-8-8-5-5-s-7-2-2--8-8-5-5-5-s-7-2-2-|
G|------------------------------------|
C|-8-8-5-5-s-7-2-2--8-8-5-5-5-s-7-2-2-|
G|------------------------------------|
C|------------------------------------|
Lost adrift, severed seas
E|------------------------------------|
C|-8-8-5-5-s-7-2-2--8-8-8-8-8-7-5-7---|
G|------------------------------------|
C|-8-8-5-5-s-7-2-2--8-8-8-8-8-7-5-7---|
G|------------------------------------|
C|------------------------------------|
 I await you,       Come
E|--------------------------------------|
C|-8-8-8-8-8-7-5-7--7-s-8--7-s-8--7-s-8-|
G|--------------------------------------|
C|-8-8-8-8-8-7-5-7--7-s-8--7-s-8--7-s-8-|
G|--------------------------------------|
C|--------------------------------------|
   To               MEeeeeeeeee!!!

Main riff (First half)
E|-------------------------------------------------|
C|--7-7-7-7-s-9-5-5-s-7-4-2-0-0--0-p-2-------------|
G|------------------------------3------3-3-s-2-s-0-|
C|--7-7-7-7-s-9-5-5-s-7-4-2-0-0--0-p-2-------------|
G|------------------------------3------3-3-s-2-s-0-|
C|-------------------------------------------------|

E|-------------------------------------------------|
C|--7-7-7-7-s-9-5-5-s-7-4-2-0-0--0-p-2-------------|
G|------------------------------3------3-3-s-2-s-0-|
C|--7-7-7-7-s-9-5-5-s-7-4-2-0-0--0-p-2-------------|
G|------------------------------3------3-3-s-2-s-0-|
C|-------------------------------------------------|

Verse 3 ( same as First)
E|--------------------------------------------------------|
C|-7-7-7-7-s-8-5-s-7--10-8-5---7-7-7-7-s-8-5-s-7--10-8-5--|
G|--------------------------------------------------------|
C|-7-7-7-7-s-8-5-s-7--10-8-5---7-7-7-7-s-8-5-s-7--10-8-5--|
G|--------------------------------------------------------|
C|--------------------------------------------------------|
Silence swimming in a pool of dreams
Beneath this depth the forgotten streams
Above the city of the evening star
Behind its walls the grand bazaar


E|----------------------------------------------------------------|
C|--2-2-2-s-3-0-2--0-0-0-----0------------------------------------|
G|-----------------------4-4-----1-1-1-1-s-5-4-4--1-1-1-1-0-0-0-0-|
C|--2-2-2-s-3-0-2--0-0-0-----0------------------------------------|
G|-----------------------4-4-----1-1-1-1-s-5-4-4--1-1-1-1-0-0-0-0-|
C|----------------------------------------------------------------|
Lying still as she wills her glance
Through the eyes of a charmers trance
Please my friend no matter what she sees
Tell my lover come back to me


Main Riff (Chorus 2)
E|-------------------------------------------------|
C|--7-7-7-7-s-9-5-5-s-7-4-2-0-0--0-p-2-------------|
G|------------------------------3------3-3-s-2-s-0-|
C|--7-7-7-7-s-9-5-5-s-7-4-2-0-0--0-p-2-------------|
G|------------------------------3------3-3-s-2-s-0-|
C|-------------------------------------------------|

E|-------------------------------------------------|
C|--7-7-7-7-s-9-5-5-s-7-4-2-0-0--0-p-2-------------|
G|------------------------------3------3-3-s-2-s-0-|
C|--7-7-7-7-s-9-5-5-s-7-4-2-0-0--0-p-2-------------|
G|------------------------------3------3-3-s-2-s-0-|
C|-------------------------------------------------|
To Me

E|-------------------------------------------------|
C|--0-0-0--0-p-2-5-5-5-s-7-7-h-5-2-p-0-------------|
G|-------3-----------------------------------------|
C|--0-0-0--0-p-2-5-5-5-s-7-4-h-5-2-p-0-------------|
G|-------3-----------------------------------------|
C|-------------------------------------------------|
To Me
E|--------------------------------------------------|
C|--0-0-0-0-0--0-p-2--------------------------------|
G|-----------3-------3-3-3-3-2-h-3-p-2-p-0----------|
C|--0-0-0-0-0--0-p-2--------------------------------|
G|-----------3-------3-3-3-3-2-h-3-p-2-p-0----------|
C|--------------------------------------------------|
To Me

E|----------------------------------------------------------0---|
C|----------------------------------------------------------0---|
G|-3-3-3-3-2-h-3-p-2-p-0--3-s-2-s-0--3-s-2-s-0--3-s-2-s-0---5---|
C|----------------------------------------------------------0---|
G|-3-3-3-3-2-h-3-p-2-p-0--3-s-2-s-0--3-s-2-s-0--3-s-2-s-0---5---|
C|----------------------------------------------------------0---|

The end
Comments