Tea Party - Emerald Chords & Tabs

 

Emerald Chords & Tabs

Tea Party Chords & Tabs

Version: 2 Type: Tab 0 ratings
1 star 2 stars 3 stars 4 stars 5 stars
comments

Emerald Tab

   
Emerald - Tea Party

tuning: E B E E B E  or  (D A D D A D + capo 2nd fret)

Intro / Verse:
E |-0------0-0--0---0-0--0-0-0--0-0-0-0---0-0-0-0-0-|
B |--7-----7-7--7--\3-3--0-0-0--3-3-3-3/5-0-0-0-0-0-|
E |---0----0-0--0---0-0--0-0-0--0-0-0-0---0-0-2-2-3-| x2
E |----0---0-0--0---0-0--0-0-0--0-0-0-----0-0-0-0-0-|
B |-----7--7-7--7---0-0--0-0-0--1-1-1-----1-1-1-1-1-|
E |-------------------------------------------------|
     ^
  Up stum

E |-0------0-0--0-----0--5-5-4-0-0-0-0-0---0-0-0-0-0-|
B |--4-----4-4--4--\5-0--0-0-0-0-3-3-3-3/5-0-0-0-0-0-|
E |---0----0-0--0-----0--0-0-0-0-0-0-0-0---0-0-2-2-3-|
E |----0---0-0--0-----0--5-5-4-0-0-0-0-----0-0-0-0-0-|
B |-----4--4-4--4--\5------------1-1-1-----1-1-1-1-1-|
E |--------------------------------------------------|
    ^
  Up stum

E |-0------0-0--0-----0--5-5-4-0-0-0-0-0---0-|
B |--4-----4-4--4--\5-0--0-0-0-0-3-3-3-3/5-0-|
E |---0----0-0--0-----0--0-0-0-0-0-0-0-0---0-|
E |----0---0-0--0-----0--5-5-4-0-0-0-0-----0-|
B |-----4--4-4--4--\5------------1-1-1-----1-|
E |------------------------------------------|
    ^
  Up stum

Chorus
------
[ Tab from: http://www.guitartabs.cc/tabs/t/tea_party/emerald_tab_ver_2.html ]
E |-5--5-5-5-4-4-4--4/5-5-5-5/7-7-7-7-\2-2-2-2/3-3-3-3-2-2-2-2-0-0-0-|
B |-0--0-0-0-0-0-0--0---0-0-0---0-0-0--0-0-0-0-0-0-0-0-0-0-0-0-0-0-0-|
E |-0--0-0-0-0-0-0--0---0-0-0---0-0-0--0-0-0-0-0-0-0-0-0-0-0-0-0-0-0-|
E |-5--5-5-5-4-4-4--4/5-5-5-5/7-7-7-7-\2-2-2-2/3-3-3-3-2-2-2-2-0-0-0-|
B |------------------------------------1-1-1-1-1-1-1-1-1-1-1-1-1-1-1-|
E |-0--0-0-0-0-0-0--0---0-0-0---0-0-0--------------------------------|

E |-5--5-5-5-4-4-4--4/5-5-5-5/7-7-7-7-\2-2-2-2/3-3-3-3-2-2-0-0-|
B |-0--0-0-0-0-0-0--0---0-0-0---0-0-0--0-0-0-0-0-0-0-0-0-0-0-0-|
E |-0--0-0-0-0-0-0--0---0-0-0---0-0-0--0-0-0-0-0-0-0-0-0-0-0-0-|
E |-5--5-5-5-4-4-4--4/5-5-5-5/7-7-7-7-\2-2-2-2/3-3-3-3-2-2-0-0-|
B |------------------------------------1-1-1-1-1-1-1-1-1-1-1-1-|
E |-0--0-0-0-0-0-0--0---0-0-0---0-0-0--------------------------|

Bridge
------

Jeff uses some weird effect here. These are the chords.

E |-5-|-8-|-1-|
B |-5-|-8-|-1-|
E |-5-|-8-|-1-|
E |-5-|-8-|-1-|
B |-5-|-8-|-1-|
E |-5-|-8-|-1-|

Outro
-----

E |-0------0-0--0---0-0--0-3-2-3-3-3-|
B |--7-----7-7--7--\3-3--0-0-0-0-0-0-|
E |---0----0-0--0---0-0--0-0-0-0-0-0-|
E |----0---0-0--0---0-0--0-3-2-3-3-3-|
B |-----7--7-7--7---0-0--0-1-1-1-1-1-|
E |----------------------------------|
Comments