Tea Party - Correspondences Chords & Tabs

 

Correspondences Chords & Tabs

Tea Party Chords & Tabs

Version: 1 Type: Tab 0 ratings
1 star 2 stars 3 stars 4 stars 5 stars
comments

Correspondences Tab

   
Correspondences - Tea Party

INTRO:
     Em7               F(?) 
E-|-----0------------|----0--------------|-
B-|--------3---------|--------1----------|-
G-|-----------0------|------------2------|-
D-|--------------2---|----------------3--|-(x 4)
A-|--2---------------|-------------------|-
E-|--0---------------|-1-----------------|-

LEAD PLAYED OVER INTRO:
E-|-----------------------|-----------------------|-
B-|-----------------------|-----------------------|-
G-|-10/12-9-7-9-7-5-7/9~~-|-10/12-9-7-9-7-5-7~\2~-|-
D-|-----------------------|-----------------------|-
A-|-----------------------|-----------------------|-
E-|-----------------------|-----------------------|-

E-|-----------------------|----------|-
B-|-----------------------|----------|-
G-|-10/12-9-7-9-7-5-7/9~~-|-7~~\2~~--|-
D-|-----------------------|----------|-
A-|-----------------------|----------|-
E-|-----------------------|----------|-

1ST & 2ND VERSE CHORDS:
    Em7    F(?)
E-|--0--|--0--|-
B-|--3--|--1--|-
G-|--0--|--2--|-
D-|--2--|--3--|-
A-|--2--|--3--|-
E-|--0--|--1--|-

1ST & 2ND CHORUS:
     Bb?   Am                    Bb?   Am
E-|--1--|--0------------------|--1--|--0--|-
B-|--3--|--5------------------|--3--|--5--|-
G-|--2--|--5---5-7-9-12-9-7-5-|--2--|--5--|-
D-|--3--|--7------------------|--3--|--7--|-
A-|--1--|--0------------------|--1--|--0--|-
E-|-----|--5------------------|-----|--5--|-

BRIDGE:
    D
E-|---------|---------|-
B-|-3-3/5\3-|-3-3/5\3-|-
G-|-2-------|-3-------|-
D-|-0-------|-0-------|-(x 4)
A-|---------|---------|-
E-|---------|---------|-

E-|----------------|-
B-|-3-3/5\3-3-3-3--|-
G-|-2-------3-0-2--|-
D-|-0-------0-0-0--|-(x 4) listen to the CD to get the 
A-|----------------|-      right rhythm.
E-|----------------|-
[ Tab from: http://www.guitartabs.cc/tabs/t/tea_party/correspondences_tab.html ]
LEAD FILL:
    D
E-|-------------------------|-------------------------|-
B-|-------------------------|-------------------------|-
G-|-7-9-10-10/12-10-9h10-10-|-7-9-10-10/12-10-9h10\7--|-
D-|-------------------------|-------------------------|-
A-|-------------------------|-------------------------|-
E-|-------------------------|-------------------------|-

                              C          B         Am
E-|-------------------------|---------------------------|-
B-|-------------------------|---------------------------|-
G-|-7-9-10-10/12-10-9h10-10-|-9~~-9h10-9-7~~-7h9-7-5~~--|-
D-|-------------------------|---------------------------|-
A-|-------------------------|---------------------------|-
E-|-------------------------|---------------------------|-

3RD VERSE:
    Em7    F(?)
E-|--0--|--0--|-
B-|--3--|--1--|-
G-|--0--|--2--|-
D-|--2--|--3--|-(x 4)
A-|--2--|--3--|-
E-|--0--|--1--|-

3RD CHORUS:
     Bb?   Am                    Bb?    Am
E-|--1--|--0------------------|--1--|--0-------------------|-
B-|--3--|--5------------------|--3--|--5-------------------|-
G-|--2--|--5---5-7-9-12-9-7-5-|--2--|--5---5-7-9-12-9-7-5--|-
D-|--3--|--7------------------|--3--|--7-------------------|-
A-|--1--|--0------------------|--1--|--0-------------------|-
E-|-----|--5------------------|-----|--5-------------------|-

     Bb?   Am                    Bb?   Am
E-|--1--|--0------------------|--1--|--0--|-
B-|--3--|--5------------------|--3--|--5--|-
G-|--2--|--5---5-7-9-12-9-7-5-|--2--|--5--|-
D-|--3--|--7------------------|--3--|--7--|-
A-|--1--|--0------------------|--1--|--0--|-
E-|-----|--5------------------|-----|--5--|-

SOLO CHORDS:
     D#    D 
E-|--1--|-----|-
B-|--4--|--3--|-
G-|--3--|--2--|-                           
D-|--1--|--0--|-(3 and a half times then play B and C into the outro)
A-|--1--|--0--|-
E-|-----|-----|-

OUTRO:
E-|----------------|-
B-|-3-3/5\3-3-3-3--|-
G-|-2-------3-0-2--|-
D-|-0-------0-0-0--|-repeat many times
A-|----------------|-
E-|----------------|-

Comments