Tea Party - Army Ants Chords & Tabs

 

Army Ants Chords & Tabs

Tea Party Chords & Tabs

Version: 2 Type: Tab 0 ratings
1 star 2 stars 3 stars 4 stars 5 stars
comments

Army Ants Tab

Army Ants - Tea Party

TUNING: Dropped-D DADGBE

Intro: (Distortion)
E|----------------------|
B|----------------------|
G|--5~--3----1h2 1h3----|
D|----------------------|
A|----------------------|
D|----------------------|


Verse: (Distortion)
E|----------------------|
B|----------------------|
G|----------------------|
D|----------------------|
A|-6~---4--2h4--2h4-----|
D|----------------------|

[ Tab from: http://www.guitartabs.cc/tabs/t/tea_party/army_ants_tab_ver_2.html ]
Chorus:
E|----------------------------------|
B|----------------------------------|
G|----------------------------------|
D|--6----5---X-X-X---6----5----X-X-X|
A|--4----3---X-X-X---4----3----X-X-X|
D|--5----4---X-X-X---5----4----X-X-X|
  "No  one   will    feel you"

E|-----------------------------|
B|-----------------------------|
G|-----------------------------|
D|--6----5---X-X-X---6----5----|
A|--4----3---X-X-X---4----3----|
D|--5----4---X-X-X---5----4----|
  "No  one   will    hear you"

INTERLUDE:
E|------------------|
B|---6----------5---|
G|---6----------5---|    this part isn't complete!!!
D|------------------|
A|---5----------4---|
D|---5----------4---|
 "The eyes of the end"

Solo:
5: 0 2 3 2 0 0 2 0 0   0
6:              6 6 6 6 3 3 6 2 3

Repeat

5: 3 2 3 2 0 0 2 0 0   0
6:              6 6 6 6 3 3 6 2 3

Repeat Solo Fig. 1
Comments