Tcs - Laugh It Up Chords & Tabs

 

Laugh It Up Chords & Tabs

Tcs Chords & Tabs

Version: 1 Type: Tab 0 ratings
1 star 2 stars 3 stars 4 stars 5 stars
comments

Laugh It Up Tab

           electric guitar  	                            (bass below)
intro 7 times through

e-----------------------------------------
d-----------------------------------------
g-----------------------------------------
b----5555-------------------------------
a----3333---5555---3333---7777---
e-------------3333---1111---5555---

verse one 3 times through
[ Tab from: http://www.guitartabs.cc/tabs/t/tcs/laugh_it_up_tab.html ]
e-----------------------------------------------------------------
g-----------------------------------------------------------------
d-----------------------------------------------------------------
b-----------------------------------------------------------------
a-------7---7---7---7---5---5---5---5---3---3---3---3------
e----5---5---5---5---3---3---3---3---1---1---1---1---------
      
    chorus 3 times through

e---------------------------------
g---------------------------------
d---------------------------------
b---------------------------------
a----3333---5555---7777----
e----1111---3333---5555----

 verse two (intro) 6 times through

e-----------------------------------------
d-----------------------------------------
g-----------------------------------------
b----5555-------------------------------
a----3333---5555---3333---7777---
e-------------3333---1111---5555---


 bass tabs   repeat through whole song

e----------------
g-----------------
d-----------------
b-----------------
a----3------------
e-------3---1---5
Comments