Tchaikovsky Piotr Ilyich - Dance Of The Sugar Plum Fairy Chords & Tabs

 

Dance Of The Sugar Plum Fairy Chords & Tabs

Tchaikovsky Piotr Ilyich Chords & Tabs

Version: 1 Type: Tab 0 ratings
1 star 2 stars 3 stars 4 stars 5 stars
comments

Dance Of The Sugar Plum Fairy Tab

"Dance of the Sugar Plum Fairy" by Piotr Ilych Tchaikovsky

this is my first tab,~ hope u like it!! 
you're best off having a listen to it first to get the timing into your head.
any comments to iamafish@hotmail.com
have fun!!
peter j

ps. i've worked it out on an electric, might be a bit tricky on accoustic


E||-----12-----14-----15---------|-----12-----14-----15---------|
B||--------------------------16--|--------------------------16--|
G||-----12-----14-----15-----14--|-----12-----14-----15-----14--|
D||------------------------------|------------------------------|
A||------------------------------|------------------------------|
E||--0------0------0------0------|--0------0------0------0------|


                                                                 
----------------------------|------------------0---0------------|
-----8---8--7--------3-3-3--|--2-2-2--1-1-1--0---1---0----------|
-------9----8--8--9--4-4-4--|--3-3-3--2-2-2--0------------------|
-----9---9-----7--8------2--|------2------1------2------2-0-----|
----------------------------|----------------2---0---2------3-2-|
--0------0-----0-----0------|--0------0------0-------0----------|


                                                                 
-----3---3--2--8--7--3-3-3--|--2-2-2-----------2---2------------|
-------5----4--7--8--2-2-2--|--3-3-3--5-5-5--4---5---4----------|
-----3---------0--0--3-3-3--|--4-4-4--3-3-3--4---5---4----------|
-------------------------2--|------4------2--4---5---4----------|
--1------0------------------|--2-------------2---3---2--2-0-----|
---------------3-----2------|---------2---------------------3-2-|


                                                                 
----------------------------|------------------0---0------------|
-----8---8--7--------3-3-3--|--2-2-2--1-1-1--0---1---0----------|
-------9----8--8--9--4-4-4--|--3-3-3--2-2-2--0-------0--0-------|
-----9---9-----7--8------2--|------2------1------2--------4-2-0-|
----------------------------|----------------2---0---2----------|
--0------0-----0-----0------|--0------0------0-------0----------|


                                                                             
--------------------------------------|-----------------------------7-7-----|
-----5---5--4----------3---3--2-------|-----1---1--0--------------7---8--0--|
-------6----4------------4----0-------|-------2----0------------8-----9-----|
-----5---5--4----------4---4--2-------|-----2---2--0------------------9-----|
--4-----------7-6-4-2-----------5-4-2-|--0-----------3-2-0------------7-----|
--------------------------------------|--------------------3--7----------7--|


                                       *       
---------------------------------------------|
---------------------------------------0-2-0-|
----8---9-----11----12----14----12-11--------|
----9---10----13----14----16----14-13--------|
---------------------------------------------|
--7---8----11----12----14----12----11--------|


                                                
-----------------------------------------------|
--------4-----5-------0---------2-----3-----0--|
--2-0-----4-----4---2---2-0-------2-----2------|
------------5-----5---------4-0-----0-----0----|
-----------------------------------------------|
------0-------------------------------------7--|


                                      *       
--------------------------------------------|
--------------------------------------0-2-0-|
---8---9-----11----12----14----12-11--------|
---9---10----13----14----16----14-13--------|
--------------------------------------------|
-----8----11----12----14----12----11--------|


                                                                                          
-----------------------------------------------|-----------------------------------------|
--------4-----5-------0---------2-----3-----0--|-----------------0--------------------0--|
--2-0-----4-----4---2---2-0-------2-----2------|----8---9-----11-------11----12----11----|
------------5-----5---------4-0-----0-----0----|----9---10----13-------13----14----13----|
-----------------------------------------------|-----------------------------------------|
------0-------------------------------------7--|--7---8----11----7--11----12----14----7--|

[ Tab from: http://www.guitartabs.cc/tabs/t/tchaikovsky_piotr_ilyich/dance_of_the_sugar_plum_fairy_tab.html ]
                                          
-----------------------------------------|
--------------------0-7-10-10---10-12----|
-----14----16----18---4-9--9----9--11----|
-----16----17----19-----------9----------|
-----------------------------------------|
--14----15----17----7---------7----------|


                                                                                           
------------------------------------------------------------------------------------------|
---------8---------12--------8---------12----------13----------16----------13----------16-|
-------9--------11---------9--------11----------12----------16----------12----------16----|
--7h10-----9h13-------7h10-----9h13-------10h14-------13h16-------10h14-------13h16-------|
------------------------------------------------------------------------------------------|
------------------------------------------------------------------------------------------|


                                                                                           
-----------------------------------------------------------17----------19----------17------
-----------17----------19----------17----------19-------17-------16h19----------17-------16
--------17-------16h20----------17-------16h20----14h17-------16----------14h17-------16---
--14h17-------16----------14h17-------16---------------------------------------------------
-------------------------------------------------------------------------------------------
-------------------------------------------------------------------------------------------


                                                     
-----19-|--------------|-----15----15--14--------------------|
-h19----|--------------|--------17-----16--16--17--15-15-15--|
--------|--------------|-----16----16------14--15--16-16-16--|
--------|--------------|-----14----------------14--------12--|
--------|------2-0-----|---------------12--------------------|
--------|----------3-2-|--0--------12------12------12--------|


                                                                                          
-------------------------12----12-----------------|------15----15--14--20--19--15-15-15--|
--14-14-14--13-13-13--12----13----12--------------|---------17-----16--19--20--14-14-14--|
--15-15-15--14-14-14--12----14----12--------------|------15------------------------------|
--------11--------13------------------14-12-------|----------------------------------14--|
----------------------------12--------------15-14-|--13--------12------------------------|
--12--------12--------12----------12--------------|--------------------15------14--------|


                                                                                          
--14-14-14---------------14----14-----------------|------15----15--14--------------------|
--15-15-15--17-17-17--16----17----16--------------|---------17-----16--16--17--15-15-15--|
------------15-15-15--16----17----16--------------|------16----16------14--15--16-16-16--|
--------16--------16------------------------------|------14----------------14--------12--|
--14------------------14----15----14--14-12-------|----------------12--------------------|
------------14------------------------------15-14-|--12--------12------12------12--------|


                                                   
-------------------------12----12-----------------|
--14-14-14--13-13-13--12----13----12--------------|
--15-15-15--14-14-14--12----14----12--------------|
--------11--------13------------------17-16-------|
----------------------------12--------------19-17-|
--12--------12--------12----------12--------------|


                                                       
------------------------------------------------------|
------17----17--16--------------15----15--14----------|
---------18-----16-----------------16-----14----------|
------17----17--16--------------16----16--14----------|
--16---------------19-18-16-14---------------17-16-14-|
------------------------------------------------------|


                                                    
-----------------------------------------19-------||
------13----13--12-----------------16h19----17----||
---------14-----12--------------------------------||
------14----14--12--------------------------------||
--12---------------15-14-12-----14----------------||
----------------------------15--------------0-----||

*these parts are played in triplets (3/4)
Comments