Tchaikovsky - Nutcracker March Chords & Tabs

 

Nutcracker March Chords & Tabs

Tchaikovsky Chords & Tabs

Version: 1 Type: Tab 0 ratings
1 star 2 stars 3 stars 4 stars 5 stars
comments

Nutcracker March Tab

Song: Nutcracker (March)
Band: Tchaikovsky
Tabbed by: SpRiNgWaFfLe [springwaffle@comcast.net]

This song is the demo on my shitty Casio
keyboard. I finaly figured out what it 
was and tabbed it out.

e||--10--10-10-10-12-12-14-10-12--||
b||.-12--12-12-12-12-12-12-12-12-.||
g||-------------------------------||
d||-------------------------------||
a||.-----------------------------.||
e||-------------------------------||

e---8-10-8-7-----------7-8-7----------
b------------10-8-7----------10-8-7---
g-9------------------7--------------9-
d-------------------------------------
a-------------------------------------
e-------------------------------------
[ Tab from: http://www.guitartabs.cc/tabs/t/tchaikovsky/nutcracker_march_tab.html ]
e------------------7-8-7------10-
b-8-7-----10-8-7---------10-8----
g-----9-8--------9---------------
d--------------------------------
a--------------------------------
e--------------------------------

e||--10--10-10-10-12-12-14-10-12--||
b||.-12--12-12-12-12-12-12-12-12-.||
g||-------------------------------||
d||-------------------------------||
a||.-----------------------------.||
e||-------------------------------||

e---8-10-8-7------------10-12-10-------------
b------------10-8-7--10----------13-12-10----
g-9---------------------------------------12-
d--------------------------------------------
a--------------------------------------------
e--------------------------------------------

e----12-10----12-14-12-10-14-15-14-12-14-11-
b-12-------13-------------------------------
g-------------------------------------------
d-------------------------------------------
a-------------------------------------------
e-------------------------------------------

That's all I know. Peace.
Comments