Taylor Swift - Stay Stay Stay Chords & Tabs

 

Stay Stay Stay Chords & Tabs

Taylor Swift Chords & Tabs

Version: 1 Type: Bass Tab 0 ratings
1 star 2 stars 3 stars 4 stars 5 stars
comments

Stay Stay Stay Bass Tab

   
0:09 Intro
G|-----------------------------------------------------------------|
D|---2-0-----------------------------2-0---------------------------|
A|-0-----3---------0-0-033---------0-----3---------0-0-033---------|
D|---------3-3-3-5---------5-5-5-----------3-3-3-5---------5-5-5\--|
   1 + 2 + 3 + 4 + 1 + 2 + 3 + 4 + 1 + 2 + 3 + 4 + 1 + 2 + 3 + 4 +

0:38 Verse
G|-----------------------------------------------------------------|
D|---2-0-----------------------------2-0---------------------------|
A|-0-----3---------0-0-033---------0-----3---------0-0-033---------|
D|---------3-3-3-5---------5-5-5-----------3-3-3-5---------5---5\--|
   1 + 2 + 3 + 4 + 1 + 2 + 3 + 4 + 1 + 2 + 3 + 4 + 1 + 2 + 3 + 4 +

G|-----------------------------------------------------------------|
D|---2-0-----------------------------2-0---------------------------|
A|-0-----3---------0-0-033---------0-----3---------0-0-033---------|
D|---------3-3-3-5---------5-5-5-----------3-3-3-5---------5\------|
   1 + 2 + 3 + 4 + 1 + 2 + 3 + 4 + 1 + 2 + 3 + 4 + 1 + 2 + 3 + 4 +

0:57 Chorus
G|-----------------------------------------------------------------|
D|-----------------------------------------------------------------|
A|-3-3-----3-3-3-------------------0---0---0-0-0-------------------|
D|-----------------3-3-----3-3-5-------------------5---5---5-5-5---|x4
   1 e + a 2 e + a 3 e + a 4 e + a 1 e + a 2 e + a 3 e + a 4 e + a

1:16 Verse
G|-----------------------------------------------------------------|
D|---2-0-----------------------------2-0---------------------------|
A|-0-----3---------0-0-033---------0-----3---------0-0-33-3--------|
D|---------3-3-3-5---------5-5-5-----------3-3-3-5---------5---5\--|
   1 + 2 + 3 + 4 + 1 + 2 + 3 + 4 + 1 + 2 + 3 + 4 + 1 + 2 + 3 + 4 +

G|-----------------------------------------------------------------|
D|---2-0-----------------------------2-0---------------------------|
A|-0-----3---------0-0-033---------0-----3---------0-0-033---------|
D|---------3-3-3-5---------5-5-5-----------3-3-3-5---------5\------|
   1 + 2 + 3 + 4 + 1 + 2 + 3 + 4 + 1 + 2 + 3 + 4 + 1 + 2 + 3 + 4 +

1:36 Chorus
G|-----------------------------------------------------------------|
D|-----------------------------------------------------------------|
A|-3-3-----3-3-3-------------------0---0---0-0-0-------------------|
D|-----------------3-3-----3-3-5-------------------5---5---5-5-5---|x4
   1 e + a 2 e + a 3 e + a 4 e + a 1 e + a 2 e + a 3 e + a 4 e + a
[ Tab from: http://www.guitartabs.cc/tabs/t/taylor_swift/stay_stay_stay_btab.html ]
1:55 Instrumental
G|-----------------------------------------------------------------|
D|---2-0-----------------------------2-0---------------------------|
A|-0-----3---------0-0-033---------0-----3---------0-0-033---------|
D|---------3-3-3-5---------5-5-5-----------3-3-3-5---------5-------|
B|-------------------------------------------------------------12\-|
   1 + 2 + 3 + 4 + 1 + 2 + 3 + 4 + 1 + 2 + 3 + 4 + 1 + 2 + 3 + 4 +

G|-----------------------------------------------------------------|
D|-----------------------------------------------------------------|
A|-----------------------------------------------------------------|
D|-7---------------3-----------------------------3-5---5---5---335-|
B|---------------------------------0---0---0---0-------------------|
   1 + 2 + 3 + 4 + 1 + 2 + 3 + 4 + 1 + 2 + 3 + 4 + 1 + 2 + 3 + 4 +

G|-----------------------------------------------------------------|
D|-----------------------------------------------------------------|
A|-----------------------------------------------------------------|
D|-7---------------3-------------------------------5---------------|
B|---------------------------------0-------------------------------|
   1 + 2 + 3 + 4 + 1 + 2 + 3 + 4 + 1 + 2 + 3 + 4 + 1 + 2 + 3 + 4 +

2:24 Pre-Chorus
G|-----------------------------------------------------------------|
D|---2-0-----------------------------2-0---------------------------|
A|-0-----3---------0---0-0---------0-----3---------0---33--3-------|
D|---------3---------------5--55-5---------3-----5-----------5-5---|
   1 + 2 + 3 + 4 + 1 + 2 + 3 + 4 + 1 + 2 + 3 + 4 + 1 + 2 + 3 + 4 +

G|---------------------------------5-4-----------------------------|
D|---2-0-------------------------------7-5-3-----------------------|
A|-0-----3---------0-0-0000------------------7-3---3-1-0-----------|
D|---------3-33335---------5-55-55-----------------------5-5-------|
   1 + 2 + 3 + 4 + 1 + 2 + 3 + 4 + 1 + 2 + 3 + 4 + 1 + 2 + 3 + 4 +

2:43 Chorus
G|-----------------------------------------------------------------|
D|-----------------------------------------------------------------|
A|-3-3-----3-3-3-------------------0---0---0-0-0-------------------|
D|-----------------3-3-----3-3-5-------------------5---5---5-5-5---|x6
   1 e + a 2 e + a 3 e + a 4 e + a 1 e + a 2 e + a 3 e + a 4 e + a

G|-----------------------------------------------------------------|
D|-----------------------------------------------------------------|
A|-3-3-----3-3-3-------------------0---0---0-0-0-------------------|
D|-----------------3-3-----3-3-5-------------------5---------------|x1
   1 e + a 2 e + a 3 e + a 4 e + a 1 e + a 2 e + a 3 e + a 4 e + a

Tabbed By Jack Mills
Comments