Taylor Swift - Mine Chords & Tabs

 

Mine Chords & Tabs

Taylor Swift Chords & Tabs

Version: 2 Type: Bass Tab

Mine Bass Tab

   
------------------------------------------------------------------------

                           Mine - Taylor Swift

------------------------------------------------------------------------

Original song by: Taylor Swift

Transcribed by: Austen Cheah

E-mail: atherkaii@ymail.com

Tuning: Drop-D

Intro (x4)
=====

G|---------------------------------------------08--08--08--08--08-|
D|-09--09--09------------------12--12--12--12---------------------|
A|-------------09--09--09--09-------------------------------------|
D|----------------------------------------------------------------|

G|----------------------------------------------------------------|
D|-09--09--09------------------12--12--12--12--12--12--12--12--12-|
A|-------------09--09--09--09-------------------------------------|
D|----------------------------------------------------------------|

On the 4th time replace last bar with this

G|----------------------------------------------------------------|
D|-09--09--09------------------12---------------------------------|
A|-------------09--09--09--09-------------------------------------|
D|----------------------------------------------------------------|

Pre-Chorus
==========

G|----------------------------------|-----------------54---------------|
D|----5---------------5-------------|----5--------------55-------------|
A|-3------5--------3------5---------|-3------5---------------5---------|
D|----------------------------------|----------------------------------|

Chorus (x2)                          After the 2nd time
======

G|----------------------------------|---------5555---------------------|
D|-------------------------2-2------|----------------------------------|
A|-33333333--------55555555----5-5--|-3--3--3-----33-------------------|
D|---------55555555-----------------|----------------------------------|

Verse
=====

G|----------------------------------|----------------------------------|
D|----5--------2-2------------------|----5--------2-2----5-------------|
A|-3------5--------3------5-----05--|-3------5--------3------5---------|
D|--------------------5-------------|----------------------------------|

Pre-Chorus
==========
[ Tab from: http://www.guitartabs.cc/tabs/t/taylor_swift/mine_btab_ver_2.html ]
G|----------------------------------|---------------2454---------------|
D|----5---------------5--2----------|--------------5----55555----------|
A|-3------5---050503----3-5---05050-|-3------5---------------55555555--|
D|----------------------------------|----3-----------------------------|

Chorus (x2)
======

G|----------------------------------|----------------------------------|
D|-------------------------2-2------|---------55555555--------2-2------|
A|-33333333--------55555555----5-5--|-33333333--------55555555----5-5--|
D|---------55555555-----------------|----------------------------------|

Post-Chorus
===========

G|----------------------------------|
D|----5---------------5-------------|
A|-3-----35--------3-----35---------|
D|----------------------------------|

Bridge
======

G|----------------------------4747--|----------------------------------|
D|-2--------------------------------|-2--------------------------------|
A|---------3-------5----------------|---------3-------5----------------|
D|----------------------------------|----------------------------------|

Pre-Chorus (x2)                      After the 2nd time
==========

G|----------------------------------|-54-2-----------------------------|
D|----5---------------5-------------|---5--5---------------------------|
A|-3------5--------3------5---------|-------53-------------------------|
D|----------------------------------|----------------------------------|

Finale
======

G|----------------------------------|----------------------------------|
D|----------------------------------|----------------------------------|
A|----------------------------------|-33333333-----023555552-----------|
D|----------------------------------|---------55555---------5200000000-|

G|----------------------------------|----------------------------------|
D|-------------------------2-2------|----------------------------------|
A|-33333333--------55555555----5-5--|-33333333--------5555555555555555-|
D|---------55555555-----------------|---------55555555-----------------|

G|---------------------------24542--|---------------24542--------------|
D|----5555-----2-2----5555--5-------|----5555------5-----5-------------|
A|-333----55555----333----55--------|-333----555555----------5---------|
D|----------------------------------|----------------------------------|