Taylor James - Sweet Baby James Chords & Tabs

 

Sweet Baby James Chords & Tabs

Taylor James Chords & Tabs

Version: 1 Type: Tab 2 ratings
1 star 2 stars 3 stars 4 stars 5 stars
comments

Sweet Baby James Tab

   
                                    Sweet Baby James                                      


                                                  © 1970 - Words and Music by James Taylor
Acoustic guitar - James Taylor
Fingerstyle clawhammer or flatpicking.  142bpm



     G         G/F#     Em7                A7sus4                             
E||--3------3-----3--|-------3----3--3--|--3----3----3--3--|--3----3----3----|
B||--3------3-----3--|-------3----3--3--|--3----3----3--3--|--3----3----3----|
G||--0------0-----0--|-------0----0--0--|--0----0----0--0--|--0----0----0----|
D||------------------|------------------|------------------|-----------------|
A||------------------|------------------|--0---------------|--0--------------|
E||--3---------2-----|--0---------------|------------------|-----------------|


  D                 A                  G                 F#m              
-------2----2----|-------0----0---0-|-------3----3----|---------2--2--2--|
-------3----3----|-------2----2---2-|-------3----3----|---------2--2--2--|
-------2----2----|-------2----2---2-|-------0----0----|---------2--2--2--|
--0--------------|------------------|-----------------|------------------|
-----------------|--0---------------|-----------------|------------------|
-----------------|------------------|--3--------------|--2---------------|


                    Bm                G                 D               
--2----2----2----|-------2----2----|-------3---------|-------2----2----|
--2----2----2----|-------3----3----|-------3---------|-------3----3----|
--2--------------|-------4----4----|-------0---------|-------2----2----|
-----------------|-----------------|-----------------|--0--------------|
-----------------|--2--------------|------------2----|-----------------|
--2--------------|-----------------|--3--------------|-----------------|


  F#m                                  Bm                G               
---------2--2--2--|--2----2----2----|-------2----2----|-------3---------|
---------2--2--2--|--2----2----2----|-------3----3----|-------3---------|
---------2--2--2--|--2--------------|-------4----4----|-------0---------|
------------------|-----------------|-----------------|-----------------|
------------------|-----------------|--2--------------|------------2----|
--2---------------|--2--------------|-----------------|--3--------------|


  D                 F#m               G                 D                 A               
-------2----2----|-------2----2----|-------3---------|-------2----2----|-------0----0----|
-------3----3----|-------2----2----|-------3---------|-------3----3----|-------2----2----|
-------2----2----|-------2----2----|-------0---------|-------2----2----|-------2----2----|
--0--------------|-----------------|-----------------|--0--------------|-----------------|
-----------------|-----------------|------------2----|-----------------|--0--------------|
-----------------|--2--------------|--3--------------|-----------------|-----------------|


  Em7                                   A                                    
-------3----3--3--|-------3----3--3--|--0----------0-----|--0---------------|
-------3----3--3--|-------3----3--3--|--0h2--------0-----|--0h2---0---------|
-------0----0--0--|-------0----0--0--|--2-------2--2--2--|--2----------2----|
------------------|------------------|-------------------|------------------|
------------------|------------------|--0-------0-----0--|--0---------------|
--0---------------|--0---------------|-------------------|------------------|


  G                                   A7sus4            D                 Bm              
-------3----3----|-------3----3----|-------3----3----|-------2----2----|-------2----2----|
-------3----3----|-------3----3----|-------3----3----|-------3----3----|-------3----3----|
-------0----0----|-------0----0----|-------2----2----|-------2----2----|-------4----4----|
-----------------|-----------------|-----------------|--0--------------|-----------------|
-----------------|-----------------|--0--------------|-----------------|--2--------------|
--3--------------|--3--------------|-----------------|-----------------|-----------------|


  G                  D                 A                  G               
-------3--3-------|-------2----2----|--0---------------|-------3----3----|
-------3--3-------|-------3----3----|--0h-2--0---------|-------3----3----|
-------0--0-------|-------2----2----|--2----------2----|-------0----0----|
------------------|--0--------------|------------------|-----------------|
-------------2----|-----------------|--0---------------|-----------------|
--3---------------|-----------------|------------------|--3--------------|


                    A7sus4            D                 Bm              
-------3----3----|-------3----3----|-------2----2----|-------2----2----|
-------3----3----|-------3----3----|-------3----3----|-------3----3----|
-------0----0----|-------2----2----|-------2----2----|-------4----4----|
-----------------|-----------------|--0--------------|-----------------|
-----------------|--0--------------|-----------------|--2--------------|
--3--------------|-----------------|-----------------|-----------------|


  G                  D                                    E7sus4          
-------3--3-------|-------2-----2----|-------2----2----|-------0----0----|
-------3--3-------|-------3-----3----|-------3----3----|-------3----3----|
-------0--0-------|-------2-----2----|-------2----2----|-------2----2----|
------------------|--0-------0-------|--0--------------|-----------------|
-------------2----|------------------|-----------------|--2--------------|
--3---------------|------------------|-----------------|-----------------|


  E7                A7sus4 (2)                            A7               
-------0----0----|--------0----0----|--------0----0----|--------0----0----|
-------3----3----|--------3----3----|--------3----3----|--------2----2----|
-------1----1----|--------0----0----|--------0----0----|--------0----0----|
-----------------|-----2------------|-----2------------|-----2------------|
-----------------|--0---------------|--0---------------|--0---------------|
--0--------------|------------------|------------------|------------------|


                    D                 G                 A7sus4           
-----------------|-------2----2----|-------3----3----|--------3----3----|
-----------------|-------3----3----|-------3----3----|--------3----3----|
-----------------|-------2----2----|-------0----0----|--------2----2----|
-----------------|--0--------------|-----------------|-----2------------|
--0----2----4----|-----------------|-----------------|--0---------------|
-----------------|-----------------|--3--------------|------------------|


  D                 Bm                G                 D                  
-------2---------|-------2----2----|-------3----3----|--0h-2-----0--------|
-------3---------|-------3----3----|-------3----3----|--3--------------3--|
-------2---------|-------4----4----|-------0----0----|--2-----2-----2-----|
--0--------------|-----------------|-----------------|--0-----------------|
------------4----|--2--------------|-----------------|--------------------|
-----------------|-----------------|--3--------------|--------------------|


                     Bm                G                 D               
--0h-2------------|-------2----2----|-------3----3----|-------2----2----|
--3-----3---------|-------3----3----|-------3----3----|-------3----3----|
--2----------2----|-------4----4----|-------0----0----|-------2----2----|
--0---------------|-----------------|-----------------|--0--------------|
------------------|--2--------------|-----------------|-----------------|
------------------|-----------------|--3--------------|-----------------|


                     E7sus4              E7                  Asus4              
--------2----2----|----------0--------|----------0--------|-----------0--------|
--------3----3----|----------------3--|----------------3--|--0h-3-----------3--|
-----2--2----2----|--2----------------|--1----------------|--------2-----------|
--0---------------|-------0-----0-----|-------0-----0-----|--------------------|
------------------|--2----------------|-------------------|--0-----------0-----|
------------------|-------------------|--0----------------|--------------------|

[ Tab from: http://www.guitartabs.cc/tabs/t/taylor_james/sweet_baby_james_tab.html ]
  A                    G                   A7                   D                  
-----------0--------|----------3--------|-----------0--------|--0h-2-----0--------|
--0h-2-----------2--|--3-------------3--|--0h-2-----------2--|--3--------------3--|
--------2-----------|-------------0-----|--------------------|--2-----2-----2-----|
--------------------|-------0-----------|--------2-----2-----|--0-----------------|
--0-----------0-----|-------------------|--0-----------------|--------------------|
--------------------|--3----------------|--------------------|--------------------|


                     D                 A                  G               
--0h-2------------|-------2----2----|-------0----0---0-|-------3----3----|
--3-----3---------|-------3----3----|-------2----2---2-|-------3----3----|
--2----------2----|-------2----2----|-------2----2---2-|-------0----0----|
--0---------------|--0--------------|------------------|-----------------|
------------------|-----------------|--0---------------|-----------------|
------------------|-----------------|------------------|--3--------------|


  F#m                                  Bm                G               
---------2--2--2--|--2----2----2----|-------2----2----|-------3---------|
---------2--2--2--|--2----2----2----|-------3----3----|-------3---------|
---------2--2--2--|--2----2----2----|-------4----4----|-------0---------|
------------------|-----------------|-----------------|-----------------|
------------------|-----------------|--2--------------|------------2----|
--2---------------|--2--------------|-----------------|--3--------------|


  D                 F#m                                  Bm              
-------2----2----|---------2--2--2--|--2----2----2----|-------2----2----|
-------3----3----|---------2--2--2--|--2----2----2----|-------3----3----|
-------2----2----|---------2--2--2--|--2----2----2----|-------4----4----|
--0--------------|------------------|-----------------|-----------------|
-----------------|------------------|-----------------|--2--------------|
-----------------|--2---------------|--2--------------|-----------------|


  G                 D                 F#m               G                 D               
-------3---------|-------2----2----|-------2----2----|-------3---------|-------2----2----|
-------3---------|-------3----3----|-------2----2----|-------3---------|-------3----3----|
-------0---------|-------2----2----|-------2----2----|-------0---------|-------2----2----|
-----------------|--0--------------|-----------------|-----------------|--0--------------|
------------2----|-----------------|-----------------|------------2----|-----------------|
--3--------------|-----------------|--2--------------|--3--------------|-----------------|


  A                 Em7                                   A                 
-------0----0----|-------3----3--3--|-------3----3--3--|--0----------0-----|
-------2----2----|-------3----3--3--|-------3----3--3--|--0h2--------0-----|
-------2----2----|-------0----0--0--|-------0----0--0--|--2-------2--2--2--|
-----------------|------------------|------------------|-------------------|
--0--------------|------------------|------------------|--0-------0-----0--|
-----------------|--0---------------|--0---------------|-------------------|


                     G                                   A7sus4          
--0---------------|-------3----3----|-------3----3----|-------3----3----|
--0h2---0---------|-------3----3----|-------3----3----|-------3----3----|
--2----------2----|-------0----0----|-------0----0----|-------2----2----|
------------------|-----------------|-----------------|-----------------|
--0---------------|-----------------|-----------------|--0--------------|
------------------|--3--------------|--3--------------|-----------------|


  D                 Bm                G                  D               
-------2----2----|-------2----2----|-------3--3-------|-------2----2----|
-------3----3----|-------3----3----|-------3--3-------|-------3----3----|
-------2----2----|-------4----4----|-------0--0-------|-------2----2----|
--0--------------|-----------------|------------------|--0--------------|
-----------------|--2--------------|-------------2----|-----------------|
-----------------|-----------------|--3---------------|-----------------|


  A                  G                                   A7sus4          
--0---------------|-------3----3----|-------3----3----|-------3----3----|
--0h-2--0---------|-------3----3----|-------3----3----|-------3----3----|
--2----------2----|-------0----0----|-------0----0----|-------2----2----|
------------------|-----------------|-----------------|-----------------|
--0---------------|-----------------|-----------------|--0--------------|
------------------|--3--------------|--3--------------|-----------------|


  D                 Bm                G                  D                
-------2----2----|-------2----2----|-------3--3-------|-------2-----2----|
-------3----3----|-------3----3----|-------3--3-------|-------3-----3----|
-------2----2----|-------4----4----|-------0--0-------|-------2-----2----|
--0--------------|-----------------|------------------|--0-------0-------|
-----------------|--2--------------|-------------2----|------------------|
-----------------|-----------------|--3---------------|------------------|


                    E7sus4            E7                A7sus4 (2)       
-------2----2----|-------0----0----|-------0----0----|--------0----0----|
-------3----3----|-------3----3----|-------3----3----|--------3----3----|
-------2----2----|-------2----2----|-------1----1----|--------0----0----|
--0--------------|-----------------|-----------------|-----2------------|
-----------------|--2--------------|-----------------|--0---------------|
-----------------|-----------------|--0--------------|------------------|


                     A7                                   D               
--------0----0----|--------0----0----|-----------------|-------2----2----|
--------3----3----|--------2----2----|-----------------|-------3----3----|
--------0----0----|--------0----0----|-----------------|-------2----2----|
-----2------------|-----2------------|-----------------|--0--------------|
--0---------------|--0---------------|--0----2----4----|-----------------|
------------------|------------------|-----------------|-----------------|


  G                 A7sus4             D                 Bm              
-------3----3----|--------3----3----|-------2---------|-------2----2----|
-------3----3----|--------3----3----|-------3---------|-------3----3----|
-------0----0----|--------2----2----|-------2---------|-------4----4----|
-----------------|-----2------------|--0--------------|-----------------|
-----------------|--0---------------|------------4----|--2--------------|
--3--------------|------------------|-----------------|-----------------|


  G                 D                                       Bm              
-------3----3----|--0h-2-----0--------|--0h-2------------|-------2----2----|
-------3----3----|--3--------------3--|--3-----3---------|-------3----3----|
-------0----0----|--2-----2-----2-----|--2----------2----|-------4----4----|
-----------------|--0-----------------|--0---------------|-----------------|
-----------------|--------------------|------------------|--2--------------|
--3--------------|--------------------|------------------|-----------------|


  G                 D                                    E7sus4            
-------3----3----|-------2----2----|--------2----2----|----------0--------|
-------3----3----|-------3----3----|--------3----3----|----------------3--|
-------0----0----|-------2----2----|-----2--2----2----|--2----------------|
-----------------|--0--------------|--0---------------|-------0-----0-----|
-----------------|-----------------|------------------|--2----------------|
--3--------------|-----------------|------------------|-------------------|


  E7                  Asus4                A                    G                 
----------0--------|-----------0--------|-----------0--------|----------3--------|
----------------3--|--0h-3-----------3--|--0h-2-----------2--|--3-------------3--|
--1----------------|--------2-----------|--------2-----------|-------------0-----|
-------0-----0-----|--------------------|--------------------|-------0-----------|
-------------------|--0-----------0-----|--0-----------0-----|-------------------|
--0----------------|--------------------|--------------------|--3----------------|


  A7                   D                                                                  
-----------0--------|--0h-2-----0--------|--0h-2----------|--------------|--------------||
--0h-2-----------2--|--3--------------3--|--3-------------|--------------|--------------||
--------------------|--2-----2-----2-----|--2-------------|--------------|--------------||
--------2-----2-----|--0-----------------|--0-------------|--------------|--------------||
--0-----------------|--------------------|----------------|--------------|--------------||
--------------------|--------------------|----------------|--------------|--------------||


Comments