Taylor James - Dont Let Me Be Lonely Tonight Chords & Tabs

 

Dont Let Me Be Lonely Tonight Chords & Tabs

Taylor James Chords & Tabs

Version: 1 Type: Tab 1 rating
1 star 2 stars 3 stars 4 stars 5 stars
comments

Dont Let Me Be Lonely Tonight Tab

   
"Don't Let Me Be Lonely Tonight" - James Taylor © 1972



Tabbed by krypton57 17-Sep-2004                          


Acoustic guitar


                              Em9        Gmaj7/A      
E||------------------------|-------------2-----------|
B||------------------------|--------3-------3--------|
G||------------------------|-----0-------------0-----|
D||----------------0--1--2-|-------------------------|
A||----------0-1-2---------|-------------0--------0--|
E||------------------------|--0----------------------|


  Dmaj9   B7b9               Em9         A7       A7add13
--0------------------------|--------------------------|
-----2-----1---------------|---------3--2-------------|
--------2-------2-----2----|--0-----------------0-----|
--0-----------1----1-----1-|-----2-----------2-----4--|
-----------2---------------|--------------0-----------|
---------------------------|--0-----------------------|


  F#m7        B7             Gmaj7       F#m7           Bm7      E9             
--------------------------|--------------------------|--------2----------2-----|
--------2-----4-----------|-----------3-----------2--|-----3----------3-----3--|
--------2-----2-----2-----|--------4-----------2-----|--2--------1-------------|
-----4------4----4--------|-----4-----------2--------|-------------------------|
--------------2--------2--|--------------------------|--2----------------------|
--2-----------------------|--3-----------2-----------|-----------0-------------|


  Em9         Gmaj7/A         Dmaj9    B7b9   
--2------------------------|--0-----------------------|
-----3-----3--------3------|-----2-----1--1-------1---|
--------0--------0---------|----------------2---------|
-------------------------0-|--------0-----1-----------|
--------------0--------0---|-----------2--2----2------|
--0------------------------|--------------------------|


  Em9         Gmaj7/A        Dmaj9   B7b9    
--------------2-----------|--0------------------------|
--------3--------3-----3--|-----2-----1---------------|
-----0------0-------0-----|--------2-------2-----2----|
--------------------------|--0-----------1----1-----1-|
--------------0-----------|-----------2---------------|
--0-----------------------|---------------------------|


  Em9         A7       A7add13 F#m7        B7           
--------------------------|--------------------------|
---------3--2-------------|--------2-----4-----------|
--0-----------------0-----|--------2-----2-----2-----|
-----2-----------2-----4--|-----4------4----4--------|
--------------0-----------|--------------2--------2--|
--0-----------------------|--2-----------------------|


  Gmaj7       F#m7           Bm7      E9               Em9         Gmaj7/A      
--------------------------|--------2----------2-----|--2-----------------2-----|
-----------3-----------2--|-----3----------3-----3--|-----3-----3--------------|
--------4-----------2-----|--2--------1-------------|--------0--------0-----0--|
-----4-----------2--------|-------------------------|--------------------------|
--------------------------|--2----------------------|--------------0-----------|
--3-----------2-----------|-----------0-------------|--0-----------------------|


  Dmaj9       D              Bm          F#aug
--0--------2--------2--3p2-|--------2-----------2-----|
-----2-----------2---------|-----3-----------3--------|
--------2-----2------------|--4--------4--3--------3--|
--0------------------------|-----------------------4--|
---------------------------|--2-----------2-----------|
---------------------------|-----------2--------------|


  Bm7         E7            Em9      Asus4A            G    D               
-------2-----------0-----|--2------------------0--|----0----2-------3p2----|
-----3-----------3-------|-----3-----3----2----1--|----3----3----3------3--|
--2--------2--1----------|--------0------------2--|----0----2--------------|
-------------------------|---------------------2--|----0----0----0---------|
--2----------------------|-----------0---------3--|----2-------------------|
-------------------------|------------------------|----3-------------------|

[ Tab from: http://www.guitartabs.cc/tabs/t/taylor_james/dont_let_me_be_lonely_tonight_tab.html ]
  Bm          F#aug         Bm7         E7            Em9      Asus4A    C6  
--------2-----------2-----|-------2-----------0-----|--2------------------0--|
-----3-----------3--------|-----3-----------3-------|-----3-----3----2----1--|
--4--------4--3--------3--|--2--------2--1----------|--------0------------2--|
-----------------------4--|-------------------------|---------------------2--|
--2-----------2-----------|--2----------------------|-----------0---------3--|
-----------2--------------|-------------------------|------------------------|


         Gadd9                                         
---------------3-------|--3---3--3--------------------|
-----------0-----------|--0-0-1--0--------------------|
----0----2----------0--|------------------------------|
-----------------------|------------0-------0--2-0----|
-----------------------|--------------0-0-2--------2--|
-----------------------|------------------------------|


  Em9         Gmaj7/A        Dmaj9    B7b9    
-----------2--2-----------|--0------------------------|
--------3--------3--------|-----2-----1---------------|
-----0--------------0-----|--------2-------2-----2----|
--------------------------|--0-----------1----1-----1-|
--------------0--------0--|-----------2---------------|
--0-----------------------|---------------------------|


  Em9         Gmaj7/A  A7add13 F#m7        B7           
--------------------------|--------------------------|
---------3--2-------------|--------2-----4-----------|
--0-----------------0-----|--------2-----2-----2-----|
-----2-----------2-----4--|-----4------4----4--------|
--------------0-----------|--------------2--------2--|
--0-----------------------|--2-----------------------|


  Gmaj7       F#m7           Bm7      E9             
--------------------------|--------2----------2-----|
-----------3-----------2--|-----3----------3-----3--|
--------4-----------2-----|--2--------1-------------|
-----4-----------2--------|-------------------------|
--------------------------|--2----------------------|
--3-----------2-----------|-----------0-------------|


  Em9         Gmaj7/A         D/C                     
--2------------------------|--2---5-3p2--------------|
-----3-----3--------3------|--3---------3------3--5--|
--------0--------0---------|-------------------------|
-------------------------0-|-------------------------|
--------------0--------0---|--3----------------3-----|
--0------------------------|-------------------------|


  Gmaj7      F#m             Bm7      E9               Em9         Gmaj7/A     
--2h-3----3--5--2p0-------|--------2----------2-----|--2-------------------2--|
--3-------3---------3-----|-----3----------3-----3--|-----3-----3-------3-----|
--------------------------|--2--------1-------------|--------0-------0--------|
--------------------------|-------------------------|-------------------------|
--------------------------|--2----------------------|-------------------------|
--3-------3--2---------2--|-----------0-------------|-------------------------|


  Dmaj9                                           Em9       Gmaj7/A    
--0----------------|----------------------------|--2----2----2----2----|
--2----------------|---------------0------------|--3----3----3----3----|
--2----------------|------------2----2----2--4--|--0----0----0----0----|
--0----------------|----0-0-2/4--------4--------|----------------------|
-------------------|----------------------------|------------0----0----|
-------------------|----------------------------|--0----0--------------|


  Dmaj9   B7b9           Em9        Gmaj7/A       Dmaj9      B7b9 
--0--0-----------------|--2------2---2---2------|--0--0-------------------|
--2--2----1----1--1----|--3---3------3------2---|--2----2----1----1--1----|
--2--2----2----2--2----|--0----------0----------|--2------2--2----2--2----|
--0--0----1----1--1----|------------------------|--0---------1----1--1----|
----------2----2--2----|-------------0----------|------------2----2--2----|
-----------------------|--0---------------------|-------------------------|


  Em9         Gmaj7/A        Dmaj9  B7b9           Em9         Gmaj7/A      
--------------2-----------|--0-------------------|--------------2-----------|
--------3--------3-----3--|--2------1----1--1----|--------3--------3-----3--|
-----0-----0--------0-----|--2------2----2--2----|-----0-----0--------2-----|
--------------------------|--0------1----1--1----|--------------------------|
--------------0-----------|---------2----2--2----|--------------0-----------|
--0-----------------------|----------------------|--0-----------------------|


  Dmaj7       Gmaj7/C                                            
--0--------2-------------|------------------|------------------||
-----2--------3----------|------------------|------------------||
--------2----------------|------------------|------------------||
--0--------------0-------|------------------|------------------||
--------------3-----3----|------------------|------------------||
-------------------------|------------------|------------------||


Comments