Taxiride - Creepin Up Slowly Chords & Tabs

 

Creepin Up Slowly Chords & Tabs

Taxiride Chords & Tabs

Version: 1 Type: Tab 0 ratings
1 star 2 stars 3 stars 4 stars 5 stars
comments

Creepin Up Slowly Tab

   
         ***************************************
         *    Taxiride - Creeping up Slowly    *
         ***************************************

Artist : Taxiride
Song   : Creepin Up Slowly
Album  : Garage Mahal
Tabbed : Tom Francis
Email  : franga2@hotmail.com


Standard Tuning
Capo 1st Fret
All chords and tablature are relative to capo


Key
PM: Palm Mute
h : Hammer On
p : Pluck
/ : Slide up
\ : Slide Down
~ : Vibrato
b : Bend
r : Release
x : Pick Scrape
 



INTRO
  C
E----------------------------|---------------------------------------|
B-------1------------1-------|--------1----------------1-------------|
G-----0------------0---------|------0----------------0---0-----------|
D-2h3----------2h3-----------|--2h3-------------2h3--------3---------|
A----------------------------|---------------------------------------|
E----------------------------|---------------------------------------|

 
E----------------------------|---------------------------------------|
B-------1------------1-------|--------1----------------1------1------|
G-----0------------0---------|------0----------------0--------0------|
D-2h3----------2h3-----------|--2h3-------------2h3------------------|
A----------------------------|---------------------------------------|
E----------------------------|---------------------------------------|


VERSE 1
Am     Em      F           G
Let's kick on back to the places we know
Am        Em      F           G
The path isn't set, yet your life is unsure


PRECHOURUS:

      C                 F              Am                G
E----0-0-----x-x-x----1-1-----x-x-x----0-0-----x-x-x----3-3---x-x-x--|
B----1-1-----x-x-x----1-1-----x-x-x----1-1-----x-x-x----3-3---x-x-x--|
G----0-0-----x-x-x----2-2-----x-x-x----2-2-----x-x-x----0-0---x-x-x--|   X 2
D----2-2-----x-x-x----3-3-----x-x-x----2-2-----x-x-x----0-0---x-x-x--|
A----3-3-----x-x-x----3-3-----x-x-x----0-0-----x-x-x----2-2---x-x-x--|
E------------x-x-x----1-1-----x-x-x------------x-x-x----3-3---x-x-x--|

So your running in circles got a bug in your head
Feel the needles and pins get em out of my head
Take a chance on a rumor
Heard from a bet
That something is gonna change


CHORUS:
C    F           C  
It's creeping up slowly
      F          C      
She's taking me over
     G               
It's turning me on 
  C          F           C                   
With every breath that I take 
  F           C            
I roll up my dreams
     G                  
And blow them away

[ Tab from: http://www.guitartabs.cc/tabs/t/taxiride/creepin_up_slowly_tab.html ]
VERSE 2
Am     Em   F             G
Cruisin on blue street my worries are freed
Am     Em        F                 G
Stressed out and dinned out i know exactly what you need


PRECHOURUS:

      C                 F              Am                G
E----0-0-----x-x-x----1-1-----x-x-x----0-0-----x-x-x----3-3---x-x-x--|
B----1-1-----x-x-x----1-1-----x-x-x----1-1-----x-x-x----3-3---x-x-x--|
G----0-0-----x-x-x----2-2-----x-x-x----2-2-----x-x-x----0-0---x-x-x--|   X 2
D----2-2-----x-x-x----3-3-----x-x-x----2-2-----x-x-x----0-0---x-x-x--|
A----3-3-----x-x-x----3-3-----x-x-x----0-0-----x-x-x----2-2---x-x-x--|
E------------x-x-x----1-1-----x-x-x------------x-x-x----3-3---x-x-x--|


Got ya life wrapped up in the palm of your hand
Try to feel without feel but ya can't understand
No you won't be satisfied 
Till you see
That something is gonna change


CHORUS:
C    F           C  
It's creeping up slowly
      F          C      
She's taking me over
     G               
It's turning me on 
  C          F           C                   
With every breath that I take 
  F           C            
I roll up my dreams
     G                  
And blow them away


BRIDGE
F   F      F      F       G
    Rip it up and turn the page
G     G    G     C
Slip through the cracks in the stage
                       F     F    
    And you will find me there
F        F     F        G           
The person knows that upon your face 

That your gonna change



E----------------------------|---------------------------------------|
B-------1------------1-------|--------1----------------1-------------|
G-----0------------0---------|------0----------------0---0-----------|
D-2h3----------2h3-----------|--2h3-------------2h3--------3---------|
A----------------------------|---------------------------------------|
E----------------------------|---------------------------------------|

 
E----------------------------|---------------------------------------|
B-------1------------1-------|--------1----------------1------1------|
G-----0------------0---------|------0----------------0--------0------|
D-2h3----------2h3-----------|--2h3-------------2h3------------------|
A----------------------------|---------------------------------------|
E----------------------------|---------------------------------------|


------------------------------
 No Guitars in this next Part
------------------------------

saw you movin in slowly, got a glint in your eye
a moment suspicion, case you're wonderin why
and you won't be satisfied till you see
this meetin of the minds inside a me
(yeah)



The rest is just repeats of previous parts
Hope it's good enough!
Thanks to Dan "the man" Worboys for the base I used to work with

Comments