Tatu - All The Things She Said Chords & Tabs

 

All The Things She Said Chords & Tabs

Tatu Chords & Tabs

Version: 3 Type: Tab 0 ratings
1 star 2 stars 3 stars 4 stars 5 stars
comments

All The Things She Said Tab

Tuning: one half step

Figure out the strumming.
[ Tab from: http://www.guitartabs.cc/tabs/t/tatu/all_the_things_she_said_tab_ver_3.html ]
eb|----------------------------------------------------------|
Bb|----------------------------------------------------------|
Gb|-------7--6-----------------------------------------------|
Db|-------7--6---4--7----------------------------------------| Intro/Chorus
Ab|-------5--4---4--7----------------------------------------|
Eb|--------------2--5----------------------------------------|

eb|----------------------------------------------------------|
Bb|----------------------------------------------------------|
Gb|---------------7------------------------------------------|
Db|------4--2--7--7------------------------------------------| Verse
Ab|------4--2--7--4------------------------------------------|
Eb|------2--0--5---------------------------------------------|

aim = TenderAgeNBloom/PerfectLoveStory
Comments