Tatu - All The Things She Said Chords & Tabs

 

All The Things She Said Chords & Tabs

Tatu Chords & Tabs

Version: 1 Type: Chords 0 ratings
1 star 2 stars 3 stars 4 stars 5 stars
comments

All The Things She Said Chords

--------------0-----------0
--0-----------2-----------4
--2-----------4-----------6
--2-----------4-----------6
--0-----------0-----------0
--0-----------0-----------0

"All the things she said, all the things she said, 
running through my head, running through my head, running through my
head"  X2

[ Tab from: http://www.guitartabs.cc/tabs/t/tatu/all_the_things_she_said_crd.html ]
--0-----------0-----------------------0
--4-----------2-----------0-----------2
--6-----------4-----------2-----------4
--6-----------4-----------2-----------4
--0-----------0-----------0-----------0
--0-----------0-----------0-----------0

"I'm in serious s***, i feel totaly lost, if i'm asking for help, it's
only because, being with you, has opend my eyes, could i ever believe,
such a perfect surprise"...


well... thats about it...
amazing song
enjoy
Comments