Tattle Tale - Glass Vase Cello Case Chords & Tabs

 

Glass Vase Cello Case Chords & Tabs

Tattle Tale Chords & Tabs

Version: 1 Type: Tab 0 ratings
1 star 2 stars 3 stars 4 stars 5 stars
comments

Glass Vase Cello Case Tab

----------------------------------------------------------------------
	        GLASS CASE CELLO CASE - Tattle Tale
----------------------------------------------------------------------
by xguitarhead13x@aol.com

Most of the song is just this repeating...
e|----------------------------------------------
B|---------------------3-----3------------------
G|---4-0---4-0----------------------------------
D|-2-----2-----2-0-4-0---4-0---4-0--------------
A|----------------------------------------------
E|----------------------------------------------
[ Tab from: http://www.guitartabs.cc/tabs/t/tattle_tale/glass_vase_cello_case_tab.html ]
e|----------------------------------------------
B|----------------------------------------------
G|----------------------------------------------
D|---4-0---4-0---0---4-0---4-0---0--------------
A|-2-----2-----2---3-----3-----3----------------
E|----------------------------------------------



The middle of the song is mainly these four chords
e|-7-------3---2--                                      -----
B|-8---5---3---3--                                      --8--
G|-9---5---0---2--                                      --9--
D|-9---5---0---0--                                      --9--
A|-7---3---2---0--                                      --7--
E|---------3------                                      -----
  Repeat these a few times, then end softly strumming this chord
  Then go back to the first part until the end of the song
Comments