Tat - Road To Paradise Acoustic Chords & Tabs

 

Road To Paradise Acoustic Chords & Tabs

Tat Chords & Tabs

Version: 1 Type: Chords

Road To Paradise Acoustic Chords

   
(INTRO)
E||-------|------------------------------|------------------------------|
B||-------|------------------------------|------------------------------|
G||-------|--14-----14-----14-----14-----|--12-----12-----12-----12-----|
D||-------|------0------0------0------0--|------0------0------0------0--|
A||-------|------------------------------|------------------------------|
E||-------|------------------------------|------------------------------|

------------------------------|--------------------------|
------------------------------|--------------------------|
--11-----11-----11-----11-----|--9-----9-----9-----9-----|
------0------0------0------0--|-----0-----0-----0-----0--|
------------------------------|--------------------------|
------------------------------|--------------------------|

------------------------------|------------------------------|
------------------------------|------------------------------|
--14-----14-----14-----14-----|--12-----12-----12-----12-----|
------0------0------0------0--|------0------0------0------0--|
------------------------------|------------------------------|
------------------------------|------------------------------|
  "No   one's   paved   the      road   to     pa  -  ra  -

------------------------------|--------------------------|
------------------------------|--------------------------|
--11-----11-----11-----11-----|--9-----9-----9-----9-----|
------0------0------0------0--|-----0-----0-----0-----0--|
------------------------------|--------------------------|
------------------------------|--------------------------|
 dise    or     guar - an    -   teed  that  it'd  be 

------------------------------|------------------------------|
------------------------------|------------------------------|
--14-----14-----14-----14-----|--12-----12-----12-----12-----|
------0------0------0------0--|------0------0------0------0--|.......
------------------------------|------------------------------|
------------------------------|------------------------------|
  nice.  It's  just    a         long   road   hard   road...........

dragging a little red wagon till we're 
Six feet under wondering 'What the 
Fuck have I done? Where did my time go?"
At times in life you gotta take a chance and 
dance on broken glass and see who lasts
[ Tab from: http://www.guitartabs.cc/tabs/t/tat/road_to_paradise_acoustic_crd.html ]
D  G  D  A  x2

D                  G                D                A 
Love has tortured, love has killed, love has saved a million still
D                   G                   D                    A
We're all we need, two lungs one heart, To face the troubles life does part
D                    G                    D                 A
Don't waste a second breath you're dealt. Take it, Hold it, Make it felt.
D                G                 D                 A
One wasted life, one wasted youth. Wasted prospects idols too
D  G  A                      D  G  A
           Your own demise             You're better off alone
D  G  A                      D  G  A
           No alibis                    No compro - mise
                                                  ^chorus starts

(CHORUS)
D                  G            D             A
No one's paved the road to paradise or guaranteed that it'd be nice
D            G                  D                       A
It's just a long road hard road dragging a little red wagon till we're 
D              G                   D                  A
Six feet under wondering 'What the Fuck have I done? Where did my time go?"
D                          G                 D               A
At times in life you gotta take a chance and dance on broken glass and see who lasts




G                    D                        A                     D 
 Last night I had a dream I went to a golden place a place I didn't recognize
G                      D                       A                     D
St. Peter don't let me in He says I don't have faith He says I don't believe



(INTRO RIFF WITH VERSE 1 LYRICS x2)


(CHORUS)  
                                G   A   D
(end on D and repeat)...see who la -a-  asts