Tarrega Francisco - Adelita Chords & Tabs

 

Adelita Chords & Tabs

Tarrega Francisco Chords & Tabs

Version: 1 Type: Tab 0 ratings
1 star 2 stars 3 stars 4 stars 5 stars
comments

Adelita Tab

Theme 1 (minor):
----------------

E |-12-p11----7-----------|-10-p8---------------|-8-p7---------------|
B |----------------8------|----------7----------|---------------8----|
G |----------------9------|---------------9-----|---------8-----8----|
D |-----------------------|---------------10----|---------------7----|
A |-----------------------|-0-------------------|--------------------|
E |-0---------------------|---------------------|-7------------------|

E |-----------------0-------7--|-12-p11----7----------|-10-p8---------------|
B |-7h8p7-------0-------8------|----------------8-----|----------7----------|
G |---------9------------------|----------------9-----|---------------9-----|
D |----------------------------|----------------------|---------------10----|
A |----------------------------|----------------------|-0-------------------|
E |-----0----------------------|-0--------------------|---------------------|

E |-8--p7------------------|----------------------|
B |-----------------8------|-5--------------------|
G |----------8------8------|-4--------------------|
D |-----------------7------|-5--------------------|
A |------------------------|----------------------|
E |-7----------------------|--------0-------------|

Theme 2 (major):
----------------
[ Tab from: http://www.guitartabs.cc/tabs/t/tarrega_francisco/adelita_tab.html ]
E |-4---------7---------------|-4---------7---------------|
B |-------5---------5----7----|-------5---------5----7----|
G |-------4---------6---------|-------4---------6---------|
D |-------6-------------------|-------6-------------------|
A |-----------------0---------|-----------------0---------|
E |-0-------------------------|-0-------------------------|

E |-4----7----12----11--11h12p11---9---|-9h11p9----7----------------------|
B |------------------------------------|----------------10----7-----------|
G |-4-------------------------9--------|------8--------------------8------|
D |------------------------------------|------7-------------------------9-|
A |---------------------------9--------|----------------------------------|
E |-0----------------------------------|------7---------------------------|

E |-------0-------0--------|--------------------------------------|
B |-------0-------2--------|--------------------------------------|
G |------------------------|-1----4--/--13----8--9h11p9-----------|
D |-6--------9----2----4---|--------------------------8-------8---|
A |---------------0--------|--------------------------------------|
E |-0----------------------|-0------------------------8-----------|

E |---------------------------|-0----------------------|
B |---------------------4-----|-0----------------------|
G |----------6---4------2-----|-1----------------------|
D |-9--------7---6------4-----|-2----------------------|
A |---------------------2-----|------------------------|
E |-7-------------------------|--------0---------------|

Play theme 1 twice, then theme 2 and to round it off theme 1 once more.
Of course if you like it as much as I do, repeat ad infinitum.

Enjoy!

 - Igorski
Comments